  0
SECTION
  2
HEADER
  9
$ACADVER
  1
AC1015
  9
$ACADMAINTVER
 70
     6
  9
$DWGCODEPAGE
  3
ANSI_1252
  9
$INSBASE
 10
0.0
 20
0.0
 30
0.0
  9
$EXTMIN
 10
0.0
 20
0.0
 30
0.0
  9
$EXTMAX
 10
431.8
 20
279.4
 30
0.0
  9
$LIMMIN
 10
0.0
 20
0.0
  9
$LIMMAX
 10
431.8
 20
279.4
  9
$ORTHOMODE
 70
     0
  9
$REGENMODE
 70
     1
  9
$FILLMODE
 70
     1
  9
$QTEXTMODE
 70
     0
  9
$MIRRTEXT
 70
     1
  9
$LTSCALE
 40
1.0
  9
$ATTMODE
 70
     1
  9
$TEXTSIZE
 40
4.9388888889
  9
$TRACEWID
 40
1.0
  9
$TEXTSTYLE
  7
Standard
  9
$CLAYER
  8
0
  9
$CELTYPE
  6
ByLayer
  9
$CECOLOR
 62
   256
  9
$CELTSCALE
 40
1.0
  9
$DISPSILH
 70
     0
  9
$DIMSCALE
 40
1.0
  9
$DIMASZ
 40
5.1366373698
  9
$DIMEXO
 40
2.0
  9
$DIMDLI
 40
3.75
  9
$DIMRND
 40
0.0
  9
$DIMDLE
 40
0.0
  9
$DIMEXE
 40
2.0
  9
$DIMTP
 40
0.0
  9
$DIMTM
 40
0.0
  9
$DIMTXT
 40
7.0555555556
  9
$DIMCEN
 40
2.5
  9
$DIMTSZ
 40
0.0
  9
$DIMTOL
 70
     0
  9
$DIMLIM
 70
     0
  9
$DIMTIH
 70
     1
  9
$DIMTOH
 70
     1
  9
$DIMSE1
 70
     0
  9
$DIMSE2
 70
     0
  9
$DIMTAD
 70
     1
  9
$DIMZIN
 70
     0
  9
$DIMBLK
  1

  9
$DIMASO
 70
     1
  9
$DIMSHO
 70
     1
  9
$DIMPOST
  1

  9
$DIMAPOST
  1

  9
$DIMALT
 70
     0
  9
$DIMALTD
 70
     3
  9
$DIMALTF
 40
0.0393700787
  9
$DIMLFAC
 40
1.0
  9
$DIMTOFL
 70
     1
  9
$DIMTVP
 40
0.0
  9
$DIMTIX
 70
     0
  9
$DIMSOXD
 70
     0
  9
$DIMSAH
 70
     0
  9
$DIMBLK1
  1

  9
$DIMBLK2
  1

  9
$DIMSTYLE
  2
ISO-25
  9
$DIMCLRD
 70
     0
  9
$DIMCLRE
 70
     0
  9
$DIMCLRT
 70
     0
  9
$DIMTFAC
 40
1.0
  9
$DIMGAP
 40
2.0
  9
$DIMJUST
 70
     0
  9
$DIMSD1
 70
     0
  9
$DIMSD2
 70
     0
  9
$DIMTOLJ
 70
     0
  9
$DIMTZIN
 70
     0
  9
$DIMALTZ
 70
     0
  9
$DIMALTTZ
 70
     0
  9
$DIMUPT
 70
     0
  9
$DIMDEC
 70
     2
  9
$DIMTDEC
 70
     2
  9
$DIMALTU
 70
     2
  9
$DIMALTTD
 70
     3
  9
$DIMTXSTY
  7
Standard
  9
$DIMAUNIT
 70
     0
  9
$DIMADEC
 70
     2
  9
$DIMALTRND
 40
0.0
  9
$DIMAZIN
 70
     0
  9
$DIMDSEP
 70
    44
  9
$DIMATFIT
 70
     3
  9
$DIMFRAC
 70
     0
  9
$DIMLDRBLK
  1

  9
$DIMLUNIT
 70
     2
  9
$DIMLWD
 70
    -2
  9
$DIMLWE
 70
    -2
  9
$DIMTMOVE
 70
     0
  9
$LUNITS
 70
     2
  9
$LUPREC
 70
     2
  9
$SKETCHINC
 40
1.0
  9
$FILLETRAD
 40
10.0
  9
$AUNITS
 70
     0
  9
$AUPREC
 70
     2
  9
$MENU
  1
.
  9
$ELEVATION
 40
0.0
  9
$PELEVATION
 40
0.0
  9
$THICKNESS
 40
0.0
  9
$LIMCHECK
 70
     0
  9
$CHAMFERA
 40
0.0
  9
$CHAMFERB
 40
0.0
  9
$CHAMFERC
 40
0.0
  9
$CHAMFERD
 40
0.0
  9
$SKPOLY
 70
     0
  9
$TDCREATE
 40
2457676.578314838
  9
$TDUCREATE
 40
2457676.494981505
  9
$TDUPDATE
 40
2457676.578315417
  9
$TDUUPDATE
 40
2457676.494982083
  9
$TDINDWG
 40
0.0000000116
  9
$TDUSRTIMER
 40
0.0000000116
  9
$USRTIMER
 70
     1
  9
$ANGBASE
 50
0.0
  9
$ANGDIR
 70
     0
  9
$PDMODE
 70
     0
  9
$PDSIZE
 40
-1.0
  9
$PLINEWID
 40
0.0
  9
$SPLFRAME
 70
     0
  9
$SPLINETYPE
 70
     6
  9
$SPLINESEGS
 70
     8
  9
$HANDSEED
  5
426
  9
$SURFTAB1
 70
     6
  9
$SURFTAB2
 70
     6
  9
$SURFTYPE
 70
     6
  9
$SURFU
 70
     6
  9
$SURFV
 70
     6
  9
$UCSBASE
  2

  9
$UCSNAME
  2

  9
$UCSORG
 10
0.0
 20
0.0
 30
0.0
  9
$UCSXDIR
 10
1.0
 20
0.0
 30
0.0
  9
$UCSYDIR
 10
0.0
 20
1.0
 30
0.0
  9
$UCSORTHOREF
  2

  9
$UCSORTHOVIEW
 70
     0
  9
$UCSORGTOP
 10
0.0
 20
0.0
 30
0.0
  9
$UCSORGBOTTOM
 10
0.0
 20
0.0
 30
0.0
  9
$UCSORGLEFT
 10
0.0
 20
0.0
 30
0.0
  9
$UCSORGRIGHT
 10
0.0
 20
0.0
 30
0.0
  9
$UCSORGFRONT
 10
0.0
 20
0.0
 30
0.0
  9
$UCSORGBACK
 10
0.0
 20
0.0
 30
0.0
  9
$PUCSBASE
  2

  9
$PUCSNAME
  2

  9
$PUCSORG
 10
0.0
 20
0.0
 30
0.0
  9
$PUCSXDIR
 10
1.0
 20
0.0
 30
0.0
  9
$PUCSYDIR
 10
0.0
 20
1.0
 30
0.0
  9
$PUCSORTHOREF
  2

  9
$PUCSORTHOVIEW
 70
     0
  9
$PUCSORGTOP
 10
0.0
 20
0.0
 30
0.0
  9
$PUCSORGBOTTOM
 10
0.0
 20
0.0
 30
0.0
  9
$PUCSORGLEFT
 10
0.0
 20
0.0
 30
0.0
  9
$PUCSORGRIGHT
 10
0.0
 20
0.0
 30
0.0
  9
$PUCSORGFRONT
 10
0.0
 20
0.0
 30
0.0
  9
$PUCSORGBACK
 10
0.0
 20
0.0
 30
0.0
  9
$USERI1
 70
     0
  9
$USERI2
 70
     0
  9
$USERI3
 70
     0
  9
$USERI4
 70
     0
  9
$USERI5
 70
     0
  9
$USERR1
 40
0.0
  9
$USERR2
 40
0.0
  9
$USERR3
 40
0.0
  9
$USERR4
 40
0.0
  9
$USERR5
 40
0.0
  9
$WORLDVIEW
 70
     1
  9
$SHADEDGE
 70
     3
  9
$SHADEDIF
 70
    70
  9
$TILEMODE
 70
     1
  9
$MAXACTVP
 70
    64
  9
$PINSBASE
 10
0.0
 20
0.0
 30
0.0
  9
$PLIMCHECK
 70
     0
  9
$PEXTMIN
 10
1.0000000000E+20
 20
1.0000000000E+20
 30
1.0000000000E+20
  9
$PEXTMAX
 10
-1.0000000000E+20
 20
-1.0000000000E+20
 30
-1.0000000000E+20
  9
$PLIMMIN
 10
0.0
 20
0.0
  9
$PLIMMAX
 10
420.0
 20
297.0
  9
$UNITMODE
 70
     0
  9
$VISRETAIN
 70
     1
  9
$PLINEGEN
 70
     0
  9
$PSLTSCALE
 70
     1
  9
$TREEDEPTH
 70
  3020
  9
$CMLSTYLE
  2
Standard
  9
$CMLJUST
 70
     0
  9
$CMLSCALE
 40
20.0
  9
$PROXYGRAPHICS
 70
     1
  9
$MEASUREMENT
 70
     1
  9
$CELWEIGHT
370
    -1
  9
$ENDCAPS
280
     0
  9
$JOINSTYLE
280
     0
  9
$LWDISPLAY
290
     1
  9
$INSUNITS
 70
     4
  9
$HYPERLINKBASE
  1

  9
$STYLESHEET
  1

  9
$XEDIT
290
     1
  9
$CEPSNTYPE
380
     0
  9
$PSTYLEMODE
290
     1
  9
$FINGERPRINTGUID
  2
{FBECB798-22F8-421F-8635-C4C92C253904}
  9
$VERSIONGUID
  2
{FAEB1C32-E019-11D5-929B-00C0DF256EC4}
  9
$EXTNAMES
290
     1
  9
$PSVPSCALE
 40
0.0
  9
$OLESTARTUP
290
     0
  0
ENDSEC
  0
SECTION
  2
CLASSES
  0
CLASS
  1
ACDBDICTIONARYWDFLT
  2
AcDbDictionaryWithDefault
  3
ObjectDBX Classes
 90
        0
280
     0
281
     0
  0
CLASS
  1
VISUALSTYLE
  2
AcDbVisualStyle
  3
ObjectDBX Classes
 90
     4095
280
     0
281
     0
  0
CLASS
  1
MATERIAL
  2
AcDbMaterial
  3
ObjectDBX Classes
 90
     1153
280
     0
281
     0
  0
CLASS
  1
SCALE
  2
AcDbScale
  3
ObjectDBX Classes
 90
     1153
280
     0
281
     0
  0
CLASS
  1
TABLESTYLE
  2
AcDbTableStyle
  3
ObjectDBX Classes
 90
     4095
280
     0
281
     0
  0
CLASS
  1
MLEADERSTYLE
  2
AcDbMLeaderStyle
  3
ACDB_MLEADERSTYLE_CLASS
 90
     4095
280
     0
281
     0
  0
CLASS
  1
SUN
  2
AcDbSun
  3
SCENEOE
 90
     1153
280
     0
281
     0
  0
CLASS
  1
ACDBPLACEHOLDER
  2
AcDbPlaceHolder
  3
ObjectDBX Classes
 90
        0
280
     0
281
     0
  0
CLASS
  1
LAYOUT
  2
AcDbLayout
  3
ObjectDBX Classes
 90
        0
280
     0
281
     0
  0
ENDSEC
  0
SECTION
  2
TABLES
  0
TABLE
  2
VPORT
  5
8
330
0
100
AcDbSymbolTable
 70
     1
  0
VPORT
  5
29
330
8
100
AcDbSymbolTableRecord
100
AcDbViewportTableRecord
  2
*Active
 70
     0
 10
0.0
 20
0.0
 11
1.0
 21
1.0
 12
215.9
 22
139.7
 13
0.0
 23
0.0
 14
10.0
 24
10.0
 15
10.0
 25
10.0
 16
0.0
 26
0.0
 36
1.0
 17
0.0
 27
0.0
 37
0.0
 40
279.4
 41
1.5454545455
 42
50.0
 43
0.0
 44
0.0
 50
0.0
 51
0.0
 71
     0
 72
  2000
 73
     1
 74
     3
 75
     0
 76
     0
 77
     0
 78
     0
281
     0
 65
     1
110
0.0
120
0.0
130
0.0
111
1.0
121
0.0
131
0.0
112
0.0
122
1.0
132
0.0
 79
     0
146
0.0
  0
ENDTAB
  0
TABLE
  2
LTYPE
  5
5
330
0
100
AcDbSymbolTable
 70
     6
  0
LTYPE
  5
14
330
5
100
AcDbSymbolTableRecord
100
AcDbLinetypeTableRecord
  2
ByBlock
 70
     0
  3

 72
    65
 73
     0
 40
0.0
  0
LTYPE
  5
15
330
5
100
AcDbSymbolTableRecord
100
AcDbLinetypeTableRecord
  2
ByLayer
 70
     0
  3

 72
    65
 73
     0
 40
0.0
  0
LTYPE
  5
16
330
5
100
AcDbSymbolTableRecord
100
AcDbLinetypeTableRecord
  2
Continuous
 70
     0
  3
Solid line
 72
    65
 73
     0
 40
0.0
  0
LTYPE
  5
6E
330
5
100
AcDbSymbolTableRecord
100
AcDbLinetypeTableRecord
  2
HIDDEN
 70
     0
  3
Hidden __ __ __ __ __ __ __ __ __ __ __ __ __ __
 72
    65
 73
     2
 40
1.905
 49
1.27
 74
     0
 49
-0.635
 74
     0
  0
LTYPE
  5
6F
330
5
100
AcDbSymbolTableRecord
100
AcDbLinetypeTableRecord
  2
PHANTOM
 70
     0
  3
Phantom ______  __  __  ______  __  __  ______
 72
    65
 73
     6
 40
12.7
 49
6.35
 74
     0
 49
-1.27
 74
     0
 49
1.27
 74
     0
 49
-1.27
 74
     0
 49
1.27
 74
     0
 49
-1.27
 74
     0
  0
LTYPE
  5
70
330
5
100
AcDbSymbolTableRecord
100
AcDbLinetypeTableRecord
  2
CENTER
 70
     0
  3
Center ____ _ ____ _ ____ _ ____ _ ____ _ ____
 72
    65
 73
     4
 40
10.16
 49
6.35
 74
     0
 49
-1.27
 74
     0
 49
1.27
 74
     0
 49
-1.27
 74
     0
  0
LTYPE
  5
71
330
5
100
AcDbSymbolTableRecord
100
AcDbLinetypeTableRecord
  2
CENTERX2
 70
     0
  3
Center (2x) ________  __  ________  __  _____
 72
    65
 73
     4
 40
20.32
 49
12.7
 74
     0
 49
-2.54
 74
     0
 49
2.54
 74
     0
 49
-2.54
 74
     0
  0
LTYPE
  5
72
330
5
100
AcDbSymbolTableRecord
100
AcDbLinetypeTableRecord
  2
DOT2
 70
     0
  3
Dot (.5x) ........................................
 72
    65
 73
     2
 40
0.635
 49
0.0
 74
     0
 49
-0.635
 74
     0
  0
ENDTAB
  0
TABLE
  2
LAYER
  5
2
330
0
100
AcDbSymbolTable
 70
     3
  0
LAYER
  5
10
330
2
100
AcDbSymbolTableRecord
100
AcDbLayerTableRecord
  2
0
 70
     0
 62
     7
  6
Continuous
370
    -3
390
F
  0
LAYER
  5
73
330
2
100
AcDbSymbolTableRecord
100
AcDbLayerTableRecord
  2
SLD-0
 70
     0
 62
   179
  6
Continuous
370
    -3
390
F
  0
LAYER
  5
74
330
2
100
AcDbSymbolTableRecord
100
AcDbLayerTableRecord
  2
EBENE_1
 70
     0
 62
   179
  6
Continuous
370
    -3
390
F
  0
ENDTAB
  0
TABLE
  2
STYLE
  5
3
330
0
100
AcDbSymbolTable
 70
     3
  0
STYLE
  5
11
330
3
100
AcDbSymbolTableRecord
100
AcDbTextStyleTableRecord
  2
Standard
 70
     0
 40
0.0
 41
1.0
 50
0.0
 71
     0
 42
4.9388888889
  3
txt
  4

  0
STYLE
  5
96
330
3
100
AcDbSymbolTableRecord
100
AcDbTextStyleTableRecord
  2
SLDTEXTSTYLE0
 70
     0
 40
0.0
 41
0.605
 50
0.0
 71
     0
 42
4.9388888889
  3
TXT
  4

  0
STYLE
  5
16E
330
3
100
AcDbSymbolTableRecord
100
AcDbTextStyleTableRecord
  2
SLDTEXTSTYLE1
 70
     0
 40
0.0
 41
0.75
 50
0.0
 71
     0
 42
4.9388888889
  3
TXT
  4

  0
ENDTAB
  0
TABLE
  2
VIEW
  5
6
330
0
100
AcDbSymbolTable
 70
     0
  0
ENDTAB
  0
TABLE
  2
UCS
  5
7
330
0
100
AcDbSymbolTable
 70
     0
  0
ENDTAB
  0
TABLE
  2
APPID
  5
9
330
0
100
AcDbSymbolTable
 70
     1
  0
APPID
  5
12
330
9
100
AcDbSymbolTableRecord
100
AcDbRegAppTableRecord
  2
ACAD
 70
     0
  0
ENDTAB
  0
TABLE
  2
DIMSTYLE
  5
A
330
0
100
AcDbSymbolTable
 70
     1
100
AcDbDimStyleTable
  0
DIMSTYLE
105
27
330
A
100
AcDbSymbolTableRecord
100
AcDbDimStyleTableRecord
  2
ISO-25
 70
     0
 41
2.5
 42
0.625
 43
3.75
 44
1.25
 73
     0
 74
     0
 77
     1
 78
     8
140
2.5
141
2.5
143
0.0393700787
147
0.625
171
     3
172
     1
178
     0
271
     2
272
     2
274
     3
278
    44
283
     0
284
     8
340
11
  0
ENDTAB
  0
TABLE
  2
BLOCK_RECORD
  5
1
330
0
100
AcDbSymbolTable
 70
    25
  0
BLOCK_RECORD
  5
1F
330
1
100
AcDbSymbolTableRecord
100
AcDbBlockTableRecord
  2
*Model_Space
340
22
  0
BLOCK_RECORD
  5
1B
330
1
100
AcDbSymbolTableRecord
100
AcDbBlockTableRecord
  2
*Paper_Space
340
1E
  0
BLOCK_RECORD
  5
23
330
1
100
AcDbSymbolTableRecord
100
AcDbBlockTableRecord
  2
*Paper_Space0
340
26
  0
BLOCK_RECORD
  5
75
330
1
100
AcDbSymbolTableRecord
100
AcDbBlockTableRecord
  2
Block1
340
0
102
{BLKREFS
331
16D
102
}
  0
BLOCK_RECORD
  5
8C
330
1
100
AcDbSymbolTableRecord
100
AcDbBlockTableRecord
  2
SW_BLOCK_DIMENSION_0
340
0
102
{BLKREFS
331
98
102
}
  0
BLOCK_RECORD
  5
8F
330
1
100
AcDbSymbolTableRecord
100
AcDbBlockTableRecord
  2
_ORIGIN
340
0
102
{BLKREFS
331
94
331
104
102
}
  0
BLOCK_RECORD
  5
99
330
1
100
AcDbSymbolTableRecord
100
AcDbBlockTableRecord
  2
SW_BLOCK_DIMENSION_1
340
0
102
{BLKREFS
331
A0
102
}
  0
BLOCK_RECORD
  5
A1
330
1
100
AcDbSymbolTableRecord
100
AcDbBlockTableRecord
  2
SW_BLOCK_DIMENSION_2
340
0
102
{BLKREFS
331
A8
102
}
  0
BLOCK_RECORD
  5
A9
330
1
100
AcDbSymbolTableRecord
100
AcDbBlockTableRecord
  2
SW_BLOCK_DIMENSION_3
340
0
102
{BLKREFS
331
B0
102
}
  0
BLOCK_RECORD
  5
B1
330
1
100
AcDbSymbolTableRecord
100
AcDbBlockTableRecord
  2
SW_BLOCK_DIMENSION_4
340
0
102
{BLKREFS
331
B8
102
}
  0
BLOCK_RECORD
  5
B9
330
1
100
AcDbSymbolTableRecord
100
AcDbBlockTableRecord
  2
SW_BLOCK_DIMENSION_5
340
0
102
{BLKREFS
331
C0
102
}
  0
BLOCK_RECORD
  5
C1
330
1
100
AcDbSymbolTableRecord
100
AcDbBlockTableRecord
  2
SW_BLOCK_DIMENSION_6
340
0
102
{BLKREFS
331
C8
102
}
  0
BLOCK_RECORD
  5
C9
330
1
100
AcDbSymbolTableRecord
100
AcDbBlockTableRecord
  2
SW_BLOCK_DIMENSION_7
340
0
102
{BLKREFS
331
D0
102
}
  0
BLOCK_RECORD
  5
D1
330
1
100
AcDbSymbolTableRecord
100
AcDbBlockTableRecord
  2
SW_BLOCK_DIMENSION_8
340
0
102
{BLKREFS
331
D8
102
}
  0
BLOCK_RECORD
  5
D9
330
1
100
AcDbSymbolTableRecord
100
AcDbBlockTableRecord
  2
SW_BLOCK_DIMENSION_9
340
0
102
{BLKREFS
331
E0
102
}
  0
BLOCK_RECORD
  5
E1
330
1
100
AcDbSymbolTableRecord
100
AcDbBlockTableRecord
  2
SW_BLOCK_DIMENSION_10
340
0
102
{BLKREFS
331
E8
102
}
  0
BLOCK_RECORD
  5
E9
330
1
100
AcDbSymbolTableRecord
100
AcDbBlockTableRecord
  2
SW_BLOCK_DIMENSION_11
340
0
102
{BLKREFS
331
F0
102
}
  0
BLOCK_RECORD
  5
F1
330
1
100
AcDbSymbolTableRecord
100
AcDbBlockTableRecord
  2
SW_BLOCK_DIMENSION_12
340
0
102
{BLKREFS
331
F8
102
}
  0
BLOCK_RECORD
  5
F9
330
1
100
AcDbSymbolTableRecord
100
AcDbBlockTableRecord
  2
SW_BLOCK_DIMENSION_13
340
0
102
{BLKREFS
331
100
102
}
  0
BLOCK_RECORD
  5
101
330
1
100
AcDbSymbolTableRecord
100
AcDbBlockTableRecord
  2
SW_BLOCK_DIMENSION_14
340
0
102
{BLKREFS
331
110
102
}
  0
BLOCK_RECORD
  5
111
330
1
100
AcDbSymbolTableRecord
100
AcDbBlockTableRecord
  2
SW_BLOCK_DIMENSION_15
340
0
102
{BLKREFS
331
121
102
}
  0
BLOCK_RECORD
  5
122
330
1
100
AcDbSymbolTableRecord
100
AcDbBlockTableRecord
  2
SW_BLOCK_DIMENSION_16
340
0
102
{BLKREFS
331
132
102
}
  0
BLOCK_RECORD
  5
133
330
1
100
AcDbSymbolTableRecord
100
AcDbBlockTableRecord
  2
SW_BLOCK_DIMENSION_17
340
0
102
{BLKREFS
331
143
102
}
  0
BLOCK_RECORD
  5
144
330
1
100
AcDbSymbolTableRecord
100
AcDbBlockTableRecord
  2
SW_BLOCK_DIMENSION_18
340
0
102
{BLKREFS
331
154
102
}
  0
BLOCK_RECORD
  5
155
330
1
100
AcDbSymbolTableRecord
100
AcDbBlockTableRecord
  2
SW_BLOCK_DIMENSION_19
340
0
102
{BLKREFS
331
165
102
}
  0
BLOCK_RECORD
  5
166
330
1
100
AcDbSymbolTableRecord
100
AcDbBlockTableRecord
  2
SW_NOTE_0
340
0
102
{BLKREFS
331
16B
102
}
  0
BLOCK_RECORD
  5
171
330
1
100
AcDbSymbolTableRecord
100
AcDbBlockTableRecord
  2
SW_NOTE_1
340
0
102
{BLKREFS
331
178
102
}
  0
ENDTAB
  0
ENDSEC
  0
SECTION
  2
BLOCKS
  0
BLOCK
  5
20
330
1F
100
AcDbEntity
  8
0
100
AcDbBlockBegin
  2
*Model_Space
 70
     0
 10
0.0
 20
0.0
 30
0.0
  3
*Model_Space
  1

  0
ENDBLK
  5
21
330
1F
100
AcDbEntity
  8
0
100
AcDbBlockEnd
  0
BLOCK
  5
1C
330
1B
100
AcDbEntity
 67
     1
  8
0
100
AcDbBlockBegin
  2
*Paper_Space
 70
     0
 10
0.0
 20
0.0
 30
0.0
  3
*Paper_Space
  1

  0
ENDBLK
  5
1D
330
1B
100
AcDbEntity
 67
     1
  8
0
100
AcDbBlockEnd
  0
BLOCK
  5
24
330
23
100
AcDbEntity
  8
0
100
AcDbBlockBegin
  2
*Paper_Space0
 70
     0
 10
0.0
 20
0.0
 30
0.0
  3
*Paper_Space0
  1

  0
ENDBLK
  5
25
330
23
100
AcDbEntity
  8
0
100
AcDbBlockEnd
  0
BLOCK
  5
76
330
75
100
AcDbEntity
  8
0
100
AcDbBlockBegin
  2
Block1
 70
     0
 10
0.0
 20
0.0
 30
0.0
  3
Block1
  1

  0
LINE
  5
78
330
75
100
AcDbEntity
  8
EBENE_1
100
AcDbLine
 10
363.6834285714
 20
41.3579706949
 30
0.0
 11
388.6834285714
 21
41.3579706949
 31
0.0
  0
LINE
  5
79
330
75
100
AcDbEntity
  8
EBENE_1
100
AcDbLine
 10
374.9034285714
 20
41.3579706949
 30
0.0
 11
374.9034285714
 21
171.3579706949
 31
0.0
  0
LINE
  5
7A
330
75
100
AcDbEntity
  8
EBENE_1
100
AcDbLine
 10
374.9034285714
 20
51.3579706949
 30
0.0
 11
384.9034285714
 21
51.3579706949
 31
0.0
  0
LINE
  5
7B
330
75
100
AcDbEntity
  8
EBENE_1
100
AcDbLine
 10
374.9034285714
 20
61.3579706949
 30
0.0
 11
384.9034285714
 21
61.3579706949
 31
0.0
  0
LINE
  5
7C
330
75
100
AcDbEntity
  8
EBENE_1
100
AcDbLine
 10
374.9034285714
 20
71.3579706949
 30
0.0
 11
384.9034285714
 21
71.3579706949
 31
0.0
  0
LINE
  5
7D
330
75
100
AcDbEntity
  8
EBENE_1
100
AcDbLine
 10
374.9034285714
 20
81.3579706949
 30
0.0
 11
384.9034285714
 21
81.3579706949
 31
0.0
  0
LINE
  5
7E
330
75
100
AcDbEntity
  8
EBENE_1
100
AcDbLine
 10
374.9034285714
 20
91.3579706949
 30
0.0
 11
384.9034285714
 21
91.3579706949
 31
0.0
  0
LINE
  5
7F
330
75
100
AcDbEntity
  8
EBENE_1
100
AcDbLine
 10
374.9034285714
 20
101.3579706949
 30
0.0
 11
384.9034285714
 21
101.3579706949
 31
0.0
  0
LINE
  5
80
330
75
100
AcDbEntity
  8
EBENE_1
100
AcDbLine
 10
374.9034285714
 20
111.3579706949
 30
0.0
 11
384.9034285714
 21
111.3579706949
 31
0.0
  0
LINE
  5
81
330
75
100
AcDbEntity
  8
EBENE_1
100
AcDbLine
 10
374.9034285714
 20
121.3579706949
 30
0.0
 11
384.9034285714
 21
121.3579706949
 31
0.0
  0
LINE
  5
82
330
75
100
AcDbEntity
  8
EBENE_1
100
AcDbLine
 10
374.9034285714
 20
131.3579706949
 30
0.0
 11
384.9034285714
 21
131.3579706949
 31
0.0
  0
LINE
  5
83
330
75
100
AcDbEntity
  8
EBENE_1
100
AcDbLine
 10
374.9034285714
 20
141.3579706949
 30
0.0
 11
384.9034285714
 21
141.3579706949
 31
0.0
  0
LINE
  5
84
330
75
100
AcDbEntity
  8
EBENE_1
100
AcDbLine
 10
374.9034285714
 20
151.3579706949
 30
0.0
 11
384.9034285714
 21
151.3579706949
 31
0.0
  0
LINE
  5
85
330
75
100
AcDbEntity
  8
EBENE_1
100
AcDbLine
 10
374.9034285714
 20
161.3579706949
 30
0.0
 11
384.9034285714
 21
161.3579706949
 31
0.0
  0
LINE
  5
86
330
75
100
AcDbEntity
  8
EBENE_1
100
AcDbLine
 10
374.9034285714
 20
171.3579706949
 30
0.0
 11
384.9034285714
 21
171.3579706949
 31
0.0
  0
LINE
  5
87
330
75
100
AcDbEntity
  8
EBENE_1
100
AcDbLine
 10
374.9034285714
 20
66.7579706949
 30
0.0
 11
362.9034285714
 21
66.7579706949
 31
0.0
  0
LINE
  5
88
330
75
100
AcDbEntity
  8
EBENE_1
100
AcDbLine
 10
374.9034285714
 20
92.1579706949
 30
0.0
 11
362.9034285714
 21
92.1579706949
 31
0.0
  0
LINE
  5
89
330
75
100
AcDbEntity
  8
EBENE_1
100
AcDbLine
 10
374.9034285714
 20
117.5579706949
 30
0.0
 11
362.9034285714
 21
117.5579706949
 31
0.0
  0
LINE
  5
8A
330
75
100
AcDbEntity
  8
EBENE_1
100
AcDbLine
 10
374.9034285714
 20
142.9579706949
 30
0.0
 11
362.9034285714
 21
142.9579706949
 31
0.0
  0
LINE
  5
8B
330
75
100
AcDbEntity
  8
EBENE_1
100
AcDbLine
 10
374.9034285714
 20
168.3579706949
 30
0.0
 11
362.9034285714
 21
168.3579706949
 31
0.0
  0
INSERT
  5
98
330
75
100
AcDbEntity
  8
EBENE_1
100
AcDbBlockReference
  2
SW_BLOCK_DIMENSION_0
 10
397.2096946378
 20
38.9914197296
 30
0.0
  0
INSERT
  5
A0
330
75
100
AcDbEntity
  8
EBENE_1
100
AcDbBlockReference
  2
SW_BLOCK_DIMENSION_1
 10
397.2096946378
 20
48.9914197296
 30
0.0
  0
INSERT
  5
A8
330
75
100
AcDbEntity
  8
EBENE_1
100
AcDbBlockReference
  2
SW_BLOCK_DIMENSION_2
 10
397.2096946378
 20
58.9914197296
 30
0.0
  0
INSERT
  5
B0
330
75
100
AcDbEntity
  8
EBENE_1
100
AcDbBlockReference
  2
SW_BLOCK_DIMENSION_3
 10
397.2096946378
 20
68.9914197296
 30
0.0
  0
INSERT
  5
B8
330
75
100
AcDbEntity
  8
EBENE_1
100
AcDbBlockReference
  2
SW_BLOCK_DIMENSION_4
 10
397.2096946378
 20
78.9914197296
 30
0.0
  0
INSERT
  5
C0
330
75
100
AcDbEntity
  8
EBENE_1
100
AcDbBlockReference
  2
SW_BLOCK_DIMENSION_5
 10
397.2096946378
 20
88.9914197296
 30
0.0
  0
INSERT
  5
C8
330
75
100
AcDbEntity
  8
EBENE_1
100
AcDbBlockReference
  2
SW_BLOCK_DIMENSION_6
 10
397.2096946378
 20
98.9914197296
 30
0.0
  0
INSERT
  5
D0
330
75
100
AcDbEntity
  8
EBENE_1
100
AcDbBlockReference
  2
SW_BLOCK_DIMENSION_7
 10
397.2096946378
 20
108.9914197296
 30
0.0
  0
INSERT
  5
D8
330
75
100
AcDbEntity
  8
EBENE_1
100
AcDbBlockReference
  2
SW_BLOCK_DIMENSION_8
 10
397.2096946378
 20
118.9914197296
 30
0.0
  0
INSERT
  5
E0
330
75
100
AcDbEntity
  8
EBENE_1
100
AcDbBlockReference
  2
SW_BLOCK_DIMENSION_9
 10
397.2096946378
 20
128.9914197296
 30
0.0
  0
INSERT
  5
E8
330
75
100
AcDbEntity
  8
EBENE_1
100
AcDbBlockReference
  2
SW_BLOCK_DIMENSION_10
 10
397.2096946378
 20
138.9914197296
 30
0.0
  0
INSERT
  5
F0
330
75
100
AcDbEntity
  8
EBENE_1
100
AcDbBlockReference
  2
SW_BLOCK_DIMENSION_11
 10
397.2096946378
 20
148.9914197296
 30
0.0
  0
INSERT
  5
F8
330
75
100
AcDbEntity
  8
EBENE_1
100
AcDbBlockReference
  2
SW_BLOCK_DIMENSION_12
 10
397.2096946378
 20
158.9914197296
 30
0.0
  0
INSERT
  5
100
330
75
100
AcDbEntity
  8
EBENE_1
100
AcDbBlockReference
  2
SW_BLOCK_DIMENSION_13
 10
397.2096946378
 20
168.9914197296
 30
0.0
  0
INSERT
  5
110
330
75
100
AcDbEntity
  8
EBENE_1
100
AcDbBlockReference
  2
SW_BLOCK_DIMENSION_14
 10
337.2987953614
 20
36.1691980072
 30
0.0
  0
INSERT
  5
121
330
75
100
AcDbEntity
  8
EBENE_1
100
AcDbBlockReference
  2
SW_BLOCK_DIMENSION_15
 10
337.2987953614
 20
61.5691980072
 30
0.0
  0
INSERT
  5
132
330
75
100
AcDbEntity
  8
EBENE_1
100
AcDbBlockReference
  2
SW_BLOCK_DIMENSION_16
 10
337.2987953614
 20
86.9691980072
 30
0.0
  0
INSERT
  5
143
330
75
100
AcDbEntity
  8
EBENE_1
100
AcDbBlockReference
  2
SW_BLOCK_DIMENSION_17
 10
337.2987953614
 20
112.3691980072
 30
0.0
  0
INSERT
  5
154
330
75
100
AcDbEntity
  8
EBENE_1
100
AcDbBlockReference
  2
SW_BLOCK_DIMENSION_18
 10
336.8284243759
 20
137.7691980072
 30
0.0
  0
INSERT
  5
165
330
75
100
AcDbEntity
  8
EBENE_1
100
AcDbBlockReference
  2
SW_BLOCK_DIMENSION_19
 10
337.2987953614
 20
163.1691980072
 30
0.0
  0
INSERT
  5
16B
330
75
100
AcDbEntity
  8
EBENE_1
 62
   179
100
AcDbBlockReference
  2
SW_NOTE_0
 10
337.5586028241
 20
28.8175207347
 30
0.0
  0
MTEXT
  5
16C
330
75
100
AcDbEntity
  8
EBENE_1
100
AcDbMText
 10
393.160738319
 20
33.5924424874
 30
0.0
 40
3.7041666667
 41
0.0
 71
     1
 72
     1
  1
mm
  7
SLDTEXTSTYLE0
 73
     1
 44
1.0
  0
ENDBLK
  5
77
330
75
100
AcDbEntity
  8
0
100
AcDbBlockEnd
  0
BLOCK
  5
8D
330
8C
100
AcDbEntity
  8
0
100
AcDbBlockBegin
  2
SW_BLOCK_DIMENSION_0
 70
     0
 10
0.0
 20
0.0
 30
0.0
  3
SW_BLOCK_DIMENSION_0
  1

  0
INSERT
  5
94
330
8C
100
AcDbEntity
  8
EBENE_1
 62
     0
100
AcDbBlockReference
  2
_ORIGIN
 10
-1.5805038061
 20
2.3665509652
 30
0.0
 41
0.9483022837
 42
0.9483022837
 50
0.0
  0
LINE
  5
95
330
8C
100
AcDbEntity
  8
EBENE_1
 62
     0
100
AcDbLine
 10
-6.5262660664
 20
2.3665509652
 30
0.0
 11
0.0
 21
2.3665509652
 31
0.0
  0
MTEXT
  5
97
330
8C
100
AcDbEntity
  8
EBENE_1
 62
     0
100
AcDbMText
 10
0.0
 20
4.0927900738
 30
0.0
 40
3.175
 41
0.0
 71
     1
 72
     1
  1
0
  7
SLDTEXTSTYLE0
 73
     1
 44
1.0
  0
ENDBLK
  5
8E
330
8C
100
AcDbEntity
  8
0
100
AcDbBlockEnd
  0
BLOCK
  5
90
330
8F
100
AcDbEntity
  8
0
100
AcDbBlockBegin
  2
_ORIGIN
 70
     0
 10
0.0
 20
0.0
 30
0.0
  3
_ORIGIN
  1

  0
CIRCLE
  5
92
330
8F
100
AcDbEntity
  8
0
  6
ByBlock
 62
     0
370
    -2
100
AcDbCircle
 10
0.0
 20
0.0
 30
0.0
 40
0.5
  0
LINE
  5
93
330
8F
100
AcDbEntity
  8
0
  6
ByBlock
 62
     0
370
    -2
100
AcDbLine
 10
0.0
 20
0.0
 30
0.0
 11
-1.0
 21
0.0
 31
0.0
  0
ENDBLK
  5
91
330
8F
100
AcDbEntity
  8
0
100
AcDbBlockEnd
  0
BLOCK
  5
9A
330
99
100
AcDbEntity
  8
0
100
AcDbBlockBegin
  2
SW_BLOCK_DIMENSION_1
 70
     0
 10
0.0
 20
0.0
 30
0.0
  3
SW_BLOCK_DIMENSION_1
  1

  0
SOLID
  5
9C
330
99
100
AcDbEntity
  8
EBENE_1
 62
     0
100
AcDbTrace
 10
-1.5805038061
 20
2.3665509652
 30
0.0
 11
-2.0546549479
 21
-0.7154314566
 31
0.0
 12
-1.1063526643
 22
-0.7154314566
 32
0.0
 13
-1.1063526643
 23
-0.7154314566
 33
0.0
  0
LINE
  5
9D
330
99
100
AcDbEntity
  8
EBENE_1
 62
     0
100
AcDbLine
 10
-10.3062660664
 20
2.3665509652
 30
0.0
 11
0.0
 21
2.3665509652
 31
0.0
  0
LINE
  5
9E
330
99
100
AcDbEntity
  8
EBENE_1
 62
     0
100
AcDbLine
 10
-1.5805038061
 20
-7.6334490348
 30
0.0
 11
-1.5805038061
 21
2.3665509652
 31
0.0
  0
MTEXT
  5
9F
330
99
100
AcDbEntity
  8
EBENE_1
 62
     0
100
AcDbMText
 10
0.0
 20
4.0927900738
 30
0.0
 40
3.175
 41
0.0
 71
     1
 72
     1
  1
10
  7
SLDTEXTSTYLE0
 73
     1
 44
1.0
  0
ENDBLK
  5
9B
330
99
100
AcDbEntity
  8
0
100
AcDbBlockEnd
  0
BLOCK
  5
A2
330
A1
100
AcDbEntity
  8
0
100
AcDbBlockBegin
  2
SW_BLOCK_DIMENSION_2
 70
     0
 10
0.0
 20
0.0
 30
0.0
  3
SW_BLOCK_DIMENSION_2
  1

  0
SOLID
  5
A4
330
A1
100
AcDbEntity
  8
EBENE_1
 62
     0
100
AcDbTrace
 10
-1.5805038061
 20
2.3665509652
 30
0.0
 11
-2.0546549479
 21
-0.7154314566
 31
0.0
 12
-1.1063526643
 22
-0.7154314566
 32
0.0
 13
-1.1063526643
 23
-0.7154314566
 33
0.0
  0
LINE
  5
A5
330
A1
100
AcDbEntity
  8
EBENE_1
 62
     0
100
AcDbLine
 10
-10.3062660664
 20
2.3665509652
 30
0.0
 11
0.0
 21
2.3665509652
 31
0.0
  0
LINE
  5
A6
330
A1
100
AcDbEntity
  8
EBENE_1
 62
     0
100
AcDbLine
 10
-1.5805038061
 20
-7.6334490348
 30
0.0
 11
-1.5805038061
 21
2.3665509652
 31
0.0
  0
MTEXT
  5
A7
330
A1
100
AcDbEntity
  8
EBENE_1
 62
     0
100
AcDbMText
 10
0.0
 20
4.0927900738
 30
0.0
 40
3.175
 41
0.0
 71
     1
 72
     1
  1
20
  7
SLDTEXTSTYLE0
 73
     1
 44
1.0
  0
ENDBLK
  5
A3
330
A1
100
AcDbEntity
  8
0
100
AcDbBlockEnd
  0
BLOCK
  5
AA
330
A9
100
AcDbEntity
  8
0
100
AcDbBlockBegin
  2
SW_BLOCK_DIMENSION_3
 70
     0
 10
0.0
 20
0.0
 30
0.0
  3
SW_BLOCK_DIMENSION_3
  1

  0
SOLID
  5
AC
330
A9
100
AcDbEntity
  8
EBENE_1
 62
     0
100
AcDbTrace
 10
-1.5805038061
 20
2.3665509652
 30
0.0
 11
-2.0546549479
 21
-0.7154314566
 31
0.0
 12
-1.1063526643
 22
-0.7154314566
 32
0.0
 13
-1.1063526643
 23
-0.7154314566
 33
0.0
  0
LINE
  5
AD
330
A9
100
AcDbEntity
  8
EBENE_1
 62
     0
100
AcDbLine
 10
-10.3062660664
 20
2.3665509652
 30
0.0
 11
0.0
 21
2.3665509652
 31
0.0
  0
LINE
  5
AE
330
A9
100
AcDbEntity
  8
EBENE_1
 62
     0
100
AcDbLine
 10
-1.5805038061
 20
-7.6334490348
 30
0.0
 11
-1.5805038061
 21
2.3665509652
 31
0.0
  0
MTEXT
  5
AF
330
A9
100
AcDbEntity
  8
EBENE_1
 62
     0
100
AcDbMText
 10
0.0
 20
4.0927900738
 30
0.0
 40
3.175
 41
0.0
 71
     1
 72
     1
  1
30
  7
SLDTEXTSTYLE0
 73
     1
 44
1.0
  0
ENDBLK
  5
AB
330
A9
100
AcDbEntity
  8
0
100
AcDbBlockEnd
  0
BLOCK
  5
B2
330
B1
100
AcDbEntity
  8
0
100
AcDbBlockBegin
  2
SW_BLOCK_DIMENSION_4
 70
     0
 10
0.0
 20
0.0
 30
0.0
  3
SW_BLOCK_DIMENSION_4
  1

  0
SOLID
  5
B4
330
B1
100
AcDbEntity
  8
EBENE_1
 62
     0
100
AcDbTrace
 10
-1.5805038061
 20
2.3665509652
 30
0.0
 11
-2.0546549479
 21
-0.7154314566
 31
0.0
 12
-1.1063526643
 22
-0.7154314566
 32
0.0
 13
-1.1063526643
 23
-0.7154314566
 33
0.0
  0
LINE
  5
B5
330
B1
100
AcDbEntity
  8
EBENE_1
 62
     0
100
AcDbLine
 10
-10.3062660664
 20
2.3665509652
 30
0.0
 11
0.0
 21
2.3665509652
 31
0.0
  0
LINE
  5
B6
330
B1
100
AcDbEntity
  8
EBENE_1
 62
     0
100
AcDbLine
 10
-1.5805038061
 20
-7.6334490348
 30
0.0
 11
-1.5805038061
 21
2.3665509652
 31
0.0
  0
MTEXT
  5
B7
330
B1
100
AcDbEntity
  8
EBENE_1
 62
     0
100
AcDbMText
 10
0.0
 20
4.0927900738
 30
0.0
 40
3.175
 41
0.0
 71
     1
 72
     1
  1
40
  7
SLDTEXTSTYLE0
 73
     1
 44
1.0
  0
ENDBLK
  5
B3
330
B1
100
AcDbEntity
  8
0
100
AcDbBlockEnd
  0
BLOCK
  5
BA
330
B9
100
AcDbEntity
  8
0
100
AcDbBlockBegin
  2
SW_BLOCK_DIMENSION_5
 70
     0
 10
0.0
 20
0.0
 30
0.0
  3
SW_BLOCK_DIMENSION_5
  1

  0
SOLID
  5
BC
330
B9
100
AcDbEntity
  8
EBENE_1
 62
     0
100
AcDbTrace
 10
-1.5805038061
 20
2.3665509652
 30
0.0
 11
-2.0546549479
 21
-0.7154314566
 31
0.0
 12
-1.1063526643
 22
-0.7154314566
 32
0.0
 13
-1.1063526643
 23
-0.7154314566
 33
0.0
  0
LINE
  5
BD
330
B9
100
AcDbEntity
  8
EBENE_1
 62
     0
100
AcDbLine
 10
-10.3062660664
 20
2.3665509652
 30
0.0
 11
0.0
 21
2.3665509652
 31
0.0
  0
LINE
  5
BE
330
B9
100
AcDbEntity
  8
EBENE_1
 62
     0
100
AcDbLine
 10
-1.5805038061
 20
-7.6334490348
 30
0.0
 11
-1.5805038061
 21
2.3665509652
 31
0.0
  0
MTEXT
  5
BF
330
B9
100
AcDbEntity
  8
EBENE_1
 62
     0
100
AcDbMText
 10
0.0
 20
4.0927900738
 30
0.0
 40
3.175
 41
0.0
 71
     1
 72
     1
  1
50
  7
SLDTEXTSTYLE0
 73
     1
 44
1.0
  0
ENDBLK
  5
BB
330
B9
100
AcDbEntity
  8
0
100
AcDbBlockEnd
  0
BLOCK
  5
C2
330
C1
100
AcDbEntity
  8
0
100
AcDbBlockBegin
  2
SW_BLOCK_DIMENSION_6
 70
     0
 10
0.0
 20
0.0
 30
0.0
  3
SW_BLOCK_DIMENSION_6
  1

  0
SOLID
  5
C4
330
C1
100
AcDbEntity
  8
EBENE_1
 62
     0
100
AcDbTrace
 10
-1.5805038061
 20
2.3665509652
 30
0.0
 11
-2.0546549479
 21
-0.7154314566
 31
0.0
 12
-1.1063526643
 22
-0.7154314566
 32
0.0
 13
-1.1063526643
 23
-0.7154314566
 33
0.0
  0
LINE
  5
C5
330
C1
100
AcDbEntity
  8
EBENE_1
 62
     0
100
AcDbLine
 10
-10.3062660664
 20
2.3665509652
 30
0.0
 11
0.0
 21
2.3665509652
 31
0.0
  0
LINE
  5
C6
330
C1
100
AcDbEntity
  8
EBENE_1
 62
     0
100
AcDbLine
 10
-1.5805038061
 20
-7.6334490348
 30
0.0
 11
-1.5805038061
 21
2.3665509652
 31
0.0
  0
MTEXT
  5
C7
330
C1
100
AcDbEntity
  8
EBENE_1
 62
     0
100
AcDbMText
 10
0.0
 20
4.0927900738
 30
0.0
 40
3.175
 41
0.0
 71
     1
 72
     1
  1
60
  7
SLDTEXTSTYLE0
 73
     1
 44
1.0
  0
ENDBLK
  5
C3
330
C1
100
AcDbEntity
  8
0
100
AcDbBlockEnd
  0
BLOCK
  5
CA
330
C9
100
AcDbEntity
  8
0
100
AcDbBlockBegin
  2
SW_BLOCK_DIMENSION_7
 70
     0
 10
0.0
 20
0.0
 30
0.0
  3
SW_BLOCK_DIMENSION_7
  1

  0
SOLID
  5
CC
330
C9
100
AcDbEntity
  8
EBENE_1
 62
     0
100
AcDbTrace
 10
-1.5805038061
 20
2.3665509652
 30
0.0
 11
-2.0546549479
 21
-0.7154314566
 31
0.0
 12
-1.1063526643
 22
-0.7154314566
 32
0.0
 13
-1.1063526643
 23
-0.7154314566
 33
0.0
  0
LINE
  5
CD
330
C9
100
AcDbEntity
  8
EBENE_1
 62
     0
100
AcDbLine
 10
-10.3062660664
 20
2.3665509652
 30
0.0
 11
0.0
 21
2.3665509652
 31
0.0
  0
LINE
  5
CE
330
C9
100
AcDbEntity
  8
EBENE_1
 62
     0
100
AcDbLine
 10
-1.5805038061
 20
-7.6334490348
 30
0.0
 11
-1.5805038061
 21
2.3665509652
 31
0.0
  0
MTEXT
  5
CF
330
C9
100
AcDbEntity
  8
EBENE_1
 62
     0
100
AcDbMText
 10
0.0
 20
4.0927900738
 30
0.0
 40
3.175
 41
0.0
 71
     1
 72
     1
  1
70
  7
SLDTEXTSTYLE0
 73
     1
 44
1.0
  0
ENDBLK
  5
CB
330
C9
100
AcDbEntity
  8
0
100
AcDbBlockEnd
  0
BLOCK
  5
D2
330
D1
100
AcDbEntity
  8
0
100
AcDbBlockBegin
  2
SW_BLOCK_DIMENSION_8
 70
     0
 10
0.0
 20
0.0
 30
0.0
  3
SW_BLOCK_DIMENSION_8
  1

  0
SOLID
  5
D4
330
D1
100
AcDbEntity
  8
EBENE_1
 62
     0
100
AcDbTrace
 10
-1.5805038061
 20
2.3665509652
 30
0.0
 11
-2.0546549479
 21
-0.7154314566
 31
0.0
 12
-1.1063526643
 22
-0.7154314566
 32
0.0
 13
-1.1063526643
 23
-0.7154314566
 33
0.0
  0
LINE
  5
D5
330
D1
100
AcDbEntity
  8
EBENE_1
 62
     0
100
AcDbLine
 10
-10.3062660664
 20
2.3665509652
 30
0.0
 11
0.0
 21
2.3665509652
 31
0.0
  0
LINE
  5
D6
330
D1
100
AcDbEntity
  8
EBENE_1
 62
     0
100
AcDbLine
 10
-1.5805038061
 20
-7.6334490348
 30
0.0
 11
-1.5805038061
 21
2.3665509652
 31
0.0
  0
MTEXT
  5
D7
330
D1
100
AcDbEntity
  8
EBENE_1
 62
     0
100
AcDbMText
 10
0.0
 20
4.0927900738
 30
0.0
 40
3.175
 41
0.0
 71
     1
 72
     1
  1
80
  7
SLDTEXTSTYLE0
 73
     1
 44
1.0
  0
ENDBLK
  5
D3
330
D1
100
AcDbEntity
  8
0
100
AcDbBlockEnd
  0
BLOCK
  5
DA
330
D9
100
AcDbEntity
  8
0
100
AcDbBlockBegin
  2
SW_BLOCK_DIMENSION_9
 70
     0
 10
0.0
 20
0.0
 30
0.0
  3
SW_BLOCK_DIMENSION_9
  1

  0
SOLID
  5
DC
330
D9
100
AcDbEntity
  8
EBENE_1
 62
     0
100
AcDbTrace
 10
-1.5805038061
 20
2.3665509652
 30
0.0
 11
-2.0546549479
 21
-0.7154314566
 31
0.0
 12
-1.1063526643
 22
-0.7154314566
 32
0.0
 13
-1.1063526643
 23
-0.7154314566
 33
0.0
  0
LINE
  5
DD
330
D9
100
AcDbEntity
  8
EBENE_1
 62
     0
100
AcDbLine
 10
-10.3062660664
 20
2.3665509652
 30
0.0
 11
0.0
 21
2.3665509652
 31
0.0
  0
LINE
  5
DE
330
D9
100
AcDbEntity
  8
EBENE_1
 62
     0
100
AcDbLine
 10
-1.5805038061
 20
-7.6334490348
 30
0.0
 11
-1.5805038061
 21
2.3665509652
 31
0.0
  0
MTEXT
  5
DF
330
D9
100
AcDbEntity
  8
EBENE_1
 62
     0
100
AcDbMText
 10
0.0
 20
4.0927900738
 30
0.0
 40
3.175
 41
0.0
 71
     1
 72
     1
  1
90
  7
SLDTEXTSTYLE0
 73
     1
 44
1.0
  0
ENDBLK
  5
DB
330
D9
100
AcDbEntity
  8
0
100
AcDbBlockEnd
  0
BLOCK
  5
E2
330
E1
100
AcDbEntity
  8
0
100
AcDbBlockBegin
  2
SW_BLOCK_DIMENSION_10
 70
     0
 10
0.0
 20
0.0
 30
0.0
  3
SW_BLOCK_DIMENSION_10
  1

  0
SOLID
  5
E4
330
E1
100
AcDbEntity
  8
EBENE_1
 62
     0
100
AcDbTrace
 10
-1.5805038061
 20
2.3665509652
 30
0.0
 11
-2.0546549479
 21
-0.7154314566
 31
0.0
 12
-1.1063526643
 22
-0.7154314566
 32
0.0
 13
-1.1063526643
 23
-0.7154314566
 33
0.0
  0
LINE
  5
E5
330
E1
100
AcDbEntity
  8
EBENE_1
 62
     0
100
AcDbLine
 10
-10.3062660664
 20
2.3665509652
 30
0.0
 11
0.0
 21
2.3665509652
 31
0.0
  0
LINE
  5
E6
330
E1
100
AcDbEntity
  8
EBENE_1
 62
     0
100
AcDbLine
 10
-1.5805038061
 20
-7.6334490348
 30
0.0
 11
-1.5805038061
 21
2.3665509652
 31
0.0
  0
MTEXT
  5
E7
330
E1
100
AcDbEntity
  8
EBENE_1
 62
     0
100
AcDbMText
 10
0.0
 20
4.0927900738
 30
0.0
 40
3.175
 41
0.0
 71
     1
 72
     1
  1
100
  7
SLDTEXTSTYLE0
 73
     1
 44
1.0
  0
ENDBLK
  5
E3
330
E1
100
AcDbEntity
  8
0
100
AcDbBlockEnd
  0
BLOCK
  5
EA
330
E9
100
AcDbEntity
  8
0
100
AcDbBlockBegin
  2
SW_BLOCK_DIMENSION_11
 70
     0
 10
0.0
 20
0.0
 30
0.0
  3
SW_BLOCK_DIMENSION_11
  1

  0
SOLID
  5
EC
330
E9
100
AcDbEntity
  8
EBENE_1
 62
     0
100
AcDbTrace
 10
-1.5805038061
 20
2.3665509652
 30
0.0
 11
-2.0546549479
 21
-0.7154314566
 31
0.0
 12
-1.1063526643
 22
-0.7154314566
 32
0.0
 13
-1.1063526643
 23
-0.7154314566
 33
0.0
  0
LINE
  5
ED
330
E9
100
AcDbEntity
  8
EBENE_1
 62
     0
100
AcDbLine
 10
-10.3062660664
 20
2.3665509652
 30
0.0
 11
0.0
 21
2.3665509652
 31
0.0
  0
LINE
  5
EE
330
E9
100
AcDbEntity
  8
EBENE_1
 62
     0
100
AcDbLine
 10
-1.5805038061
 20
-7.6334490348
 30
0.0
 11
-1.5805038061
 21
2.3665509652
 31
0.0
  0
MTEXT
  5
EF
330
E9
100
AcDbEntity
  8
EBENE_1
 62
     0
100
AcDbMText
 10
0.0
 20
4.0927900738
 30
0.0
 40
3.175
 41
0.0
 71
     1
 72
     1
  1
110
  7
SLDTEXTSTYLE0
 73
     1
 44
1.0
  0
ENDBLK
  5
EB
330
E9
100
AcDbEntity
  8
0
100
AcDbBlockEnd
  0
BLOCK
  5
F2
330
F1
100
AcDbEntity
  8
0
100
AcDbBlockBegin
  2
SW_BLOCK_DIMENSION_12
 70
     0
 10
0.0
 20
0.0
 30
0.0
  3
SW_BLOCK_DIMENSION_12
  1

  0
SOLID
  5
F4
330
F1
100
AcDbEntity
  8
EBENE_1
 62
     0
100
AcDbTrace
 10
-1.5805038061
 20
2.3665509652
 30
0.0
 11
-2.0546549479
 21
-0.7154314566
 31
0.0
 12
-1.1063526643
 22
-0.7154314566
 32
0.0
 13
-1.1063526643
 23
-0.7154314566
 33
0.0
  0
LINE
  5
F5
330
F1
100
AcDbEntity
  8
EBENE_1
 62
     0
100
AcDbLine
 10
-10.3062660664
 20
2.3665509652
 30
0.0
 11
0.0
 21
2.3665509652
 31
0.0
  0
LINE
  5
F6
330
F1
100
AcDbEntity
  8
EBENE_1
 62
     0
100
AcDbLine
 10
-1.5805038061
 20
-7.6334490348
 30
0.0
 11
-1.5805038061
 21
2.3665509652
 31
0.0
  0
MTEXT
  5
F7
330
F1
100
AcDbEntity
  8
EBENE_1
 62
     0
100
AcDbMText
 10
0.0
 20
4.0927900738
 30
0.0
 40
3.175
 41
0.0
 71
     1
 72
     1
  1
120
  7
SLDTEXTSTYLE0
 73
     1
 44
1.0
  0
ENDBLK
  5
F3
330
F1
100
AcDbEntity
  8
0
100
AcDbBlockEnd
  0
BLOCK
  5
FA
330
F9
100
AcDbEntity
  8
0
100
AcDbBlockBegin
  2
SW_BLOCK_DIMENSION_13
 70
     0
 10
0.0
 20
0.0
 30
0.0
  3
SW_BLOCK_DIMENSION_13
  1

  0
SOLID
  5
FC
330
F9
100
AcDbEntity
  8
EBENE_1
 62
     0
100
AcDbTrace
 10
-1.5805038061
 20
2.3665509652
 30
0.0
 11
-2.0546549479
 21
-0.7154314566
 31
0.0
 12
-1.1063526643
 22
-0.7154314566
 32
0.0
 13
-1.1063526643
 23
-0.7154314566
 33
0.0
  0
LINE
  5
FD
330
F9
100
AcDbEntity
  8
EBENE_1
 62
     0
100
AcDbLine
 10
-10.3062660664
 20
2.3665509652
 30
0.0
 11
0.0
 21
2.3665509652
 31
0.0
  0
LINE
  5
FE
330
F9
100
AcDbEntity
  8
EBENE_1
 62
     0
100
AcDbLine
 10
-1.5805038061
 20
-7.6334490348
 30
0.0
 11
-1.5805038061
 21
2.3665509652
 31
0.0
  0
MTEXT
  5
FF
330
F9
100
AcDbEntity
  8
EBENE_1
 62
     0
100
AcDbMText
 10
0.0
 20
4.0927900738
 30
0.0
 40
3.175
 41
0.0
 71
     1
 72
     1
  1
130
  7
SLDTEXTSTYLE0
 73
     1
 44
1.0
  0
ENDBLK
  5
FB
330
F9
100
AcDbEntity
  8
0
100
AcDbBlockEnd
  0
BLOCK
  5
102
330
101
100
AcDbEntity
  8
0
100
AcDbBlockBegin
  2
SW_BLOCK_DIMENSION_14
 70
     0
 10
0.0
 20
0.0
 30
0.0
  3
SW_BLOCK_DIMENSION_14
  1

  0
INSERT
  5
104
330
101
100
AcDbEntity
  8
EBENE_1
 62
     0
100
AcDbBlockReference
  2
_ORIGIN
 10
16.3971707594
 20
5.1887726877
 30
0.0
 41
0.9483022837
 42
0.9483022837
 50
0.0
  0
LINE
  5
105
330
101
100
AcDbEntity
  8
EBENE_1
 62
     0
100
AcDbLine
 10
3.2925925916
 20
9.671990294
 30
0.0
 11
2.2342592711
 21
9.671990294
 31
0.0
  0
LINE
  5
106
330
101
100
AcDbEntity
  8
EBENE_1
 62
     0
100
AcDbLine
 10
2.2342592711
 20
9.671990294
 30
0.0
 11
2.2342592711
 21
4.9388883635
 31
0.0
  0
LINE
  5
107
330
101
100
AcDbEntity
  8
EBENE_1
 62
     0
100
AcDbLine
 10
2.2342592711
 20
4.9388883635
 30
0.0
 11
3.2925925916
 21
4.9388883635
 31
0.0
  0
LINE
  5
108
330
101
100
AcDbEntity
  8
EBENE_1
 62
     0
100
AcDbLine
 10
11.5240741288
 20
9.671990294
 30
0.0
 11
12.5824074494
 21
9.671990294
 31
0.0
  0
LINE
  5
109
330
101
100
AcDbEntity
  8
EBENE_1
 62
     0
100
AcDbLine
 10
12.5824074494
 20
9.671990294
 30
0.0
 11
12.5824074494
 21
4.9388883635
 31
0.0
  0
LINE
  5
10A
330
101
100
AcDbEntity
  8
EBENE_1
 62
     0
100
AcDbLine
 10
12.5824074494
 20
4.9388883635
 30
0.0
 11
11.5240741288
 21
4.9388883635
 31
0.0
  0
LINE
  5
10B
330
101
100
AcDbEntity
  8
EBENE_1
 62
     0
100
AcDbLine
 10
24.38463321
 20
5.1887726877
 30
0.0
 11
14.8166669533
 21
5.1887726877
 31
0.0
  0
MTEXT
  5
10C
330
101
100
AcDbEntity
  8
EBENE_1
 62
     0
100
AcDbMText
 10
1.190625
 20
4.0927900738
 30
0.0
 40
3.175
 41
0.0
 71
     1
 72
     1
  1

  7
SLDTEXTSTYLE0
 73
     1
 44
1.0
  0
MTEXT
  5
10D
330
101
100
AcDbEntity
  8
EBENE_1
 62
     0
100
AcDbMText
 10
3.2925925916
 20
9.0316784373
 30
0.0
 40
3.175
 41
0.0
 71
     1
 72
     1
  1
0,00
  7
SLDTEXTSTYLE0
 73
     1
 44
1.0
  0
MTEXT
  5
10E
330
101
100
AcDbEntity
  8
EBENE_1
 62
     0
100
AcDbMText
 10
6.2324074097
 20
4.0927898409
 30
0.0
 40
3.175
 41
0.0
 71
     1
 72
     1
  1
0
  7
SLDTEXTSTYLE0
 73
     1
 44
1.0
  0
MTEXT
  5
10F
330
101
100
AcDbEntity
  8
EBENE_1
 62
     0
100
AcDbMText
 10
14.8313658863
 20
4.0927900738
 30
0.0
 40
3.175
 41
0.0
 71
     1
 72
     1
  1

  7
SLDTEXTSTYLE0
 73
     1
 44
1.0
  0
ENDBLK
  5
103
330
101
100
AcDbEntity
  8
0
100
AcDbBlockEnd
  0
BLOCK
  5
112
330
111
100
AcDbEntity
  8
0
100
AcDbBlockBegin
  2
SW_BLOCK_DIMENSION_15
 70
     0
 10
0.0
 20
0.0
 30
0.0
  3
SW_BLOCK_DIMENSION_15
  1

  0
SOLID
  5
114
330
111
100
AcDbEntity
  8
EBENE_1
 62
     0
100
AcDbTrace
 10
16.3971707594
 20
5.1887726877
 30
0.0
 11
15.9230196175
 21
2.1067902658
 31
0.0
 12
16.8713219012
 22
2.1067902658
 32
0.0
 13
16.8713219012
 23
2.1067902658
 33
0.0
  0
LINE
  5
115
330
111
100
AcDbEntity
  8
EBENE_1
 62
     0
100
AcDbLine
 10
3.2925925916
 20
9.671990294
 30
0.0
 11
2.2342592711
 21
9.671990294
 31
0.0
  0
LINE
  5
116
330
111
100
AcDbEntity
  8
EBENE_1
 62
     0
100
AcDbLine
 10
2.2342592711
 20
9.671990294
 30
0.0
 11
2.2342592711
 21
4.9388883635
 31
0.0
  0
LINE
  5
117
330
111
100
AcDbEntity
  8
EBENE_1
 62
     0
100
AcDbLine
 10
2.2342592711
 20
4.9388883635
 30
0.0
 11
3.2925925916
 21
4.9388883635
 31
0.0
  0
LINE
  5
118
330
111
100
AcDbEntity
  8
EBENE_1
 62
     0
100
AcDbLine
 10
11.5240741288
 20
9.671990294
 30
0.0
 11
12.5824074494
 21
9.671990294
 31
0.0
  0
LINE
  5
119
330
111
100
AcDbEntity
  8
EBENE_1
 62
     0
100
AcDbLine
 10
12.5824074494
 20
9.671990294
 30
0.0
 11
12.5824074494
 21
4.9388883635
 31
0.0
  0
LINE
  5
11A
330
111
100
AcDbEntity
  8
EBENE_1
 62
     0
100
AcDbLine
 10
12.5824074494
 20
4.9388883635
 30
0.0
 11
11.5240741288
 21
4.9388883635
 31
0.0
  0
LINE
  5
11B
330
111
100
AcDbEntity
  8
EBENE_1
 62
     0
100
AcDbLine
 10
23.60463321
 20
5.1887726877
 30
0.0
 11
14.8166669533
 21
5.1887726877
 31
0.0
  0
LINE
  5
11C
330
111
100
AcDbEntity
  8
EBENE_1
 62
     0
100
AcDbLine
 10
16.3971707594
 20
-20.2112273123
 30
0.0
 11
16.3971707594
 21
5.1887726877
 31
0.0
  0
MTEXT
  5
11D
330
111
100
AcDbEntity
  8
EBENE_1
 62
     0
100
AcDbMText
 10
1.190625
 20
4.0927900738
 30
0.0
 40
3.175
 41
0.0
 71
     1
 72
     1
  1

  7
SLDTEXTSTYLE0
 73
     1
 44
1.0
  0
MTEXT
  5
11E
330
111
100
AcDbEntity
  8
EBENE_1
 62
     0
100
AcDbMText
 10
3.2925925916
 20
9.0316784373
 30
0.0
 40
3.175
 41
0.0
 71
     1
 72
     1
  1
1,00
  7
SLDTEXTSTYLE0
 73
     1
 44
1.0
  0
MTEXT
  5
11F
330
111
100
AcDbEntity
  8
EBENE_1
 62
     0
100
AcDbMText
 10
2.1166665247
 20
4.0927898409
 30
0.0
 40
3.175
 41
0.0
 71
     1
 72
     1
  1
25,40
  7
SLDTEXTSTYLE0
 73
     1
 44
1.0
  0
MTEXT
  5
120
330
111
100
AcDbEntity
  8
EBENE_1
 62
     0
100
AcDbMText
 10
14.8313658863
 20
4.0927900738
 30
0.0
 40
3.175
 41
0.0
 71
     1
 72
     1
  1

  7
SLDTEXTSTYLE0
 73
     1
 44
1.0
  0
ENDBLK
  5
113
330
111
100
AcDbEntity
  8
0
100
AcDbBlockEnd
  0
BLOCK
  5
123
330
122
100
AcDbEntity
  8
0
100
AcDbBlockBegin
  2
SW_BLOCK_DIMENSION_16
 70
     0
 10
0.0
 20
0.0
 30
0.0
  3
SW_BLOCK_DIMENSION_16
  1

  0
SOLID
  5
125
330
122
100
AcDbEntity
  8
EBENE_1
 62
     0
100
AcDbTrace
 10
16.3971707594
 20
5.1887726877
 30
0.0
 11
15.9230196175
 21
2.1067902658
 31
0.0
 12
16.8713219012
 22
2.1067902658
 32
0.0
 13
16.8713219012
 23
2.1067902658
 33
0.0
  0
LINE
  5
126
330
122
100
AcDbEntity
  8
EBENE_1
 62
     0
100
AcDbLine
 10
3.2925925916
 20
9.671990294
 30
0.0
 11
2.2342592711
 21
9.671990294
 31
0.0
  0
LINE
  5
127
330
122
100
AcDbEntity
  8
EBENE_1
 62
     0
100
AcDbLine
 10
2.2342592711
 20
9.671990294
 30
0.0
 11
2.2342592711
 21
4.9388883635
 31
0.0
  0
LINE
  5
128
330
122
100
AcDbEntity
  8
EBENE_1
 62
     0
100
AcDbLine
 10
2.2342592711
 20
4.9388883635
 30
0.0
 11
3.2925925916
 21
4.9388883635
 31
0.0
  0
LINE
  5
129
330
122
100
AcDbEntity
  8
EBENE_1
 62
     0
100
AcDbLine
 10
11.5240741288
 20
9.671990294
 30
0.0
 11
12.5824074494
 21
9.671990294
 31
0.0
  0
LINE
  5
12A
330
122
100
AcDbEntity
  8
EBENE_1
 62
     0
100
AcDbLine
 10
12.5824074494
 20
9.671990294
 30
0.0
 11
12.5824074494
 21
4.9388883635
 31
0.0
  0
LINE
  5
12B
330
122
100
AcDbEntity
  8
EBENE_1
 62
     0
100
AcDbLine
 10
12.5824074494
 20
4.9388883635
 30
0.0
 11
11.5240741288
 21
4.9388883635
 31
0.0
  0
LINE
  5
12C
330
122
100
AcDbEntity
  8
EBENE_1
 62
     0
100
AcDbLine
 10
23.60463321
 20
5.1887726877
 30
0.0
 11
14.8166669533
 21
5.1887726877
 31
0.0
  0
LINE
  5
12D
330
122
100
AcDbEntity
  8
EBENE_1
 62
     0
100
AcDbLine
 10
16.3971707594
 20
-20.2112273123
 30
0.0
 11
16.3971707594
 21
5.1887726877
 31
0.0
  0
MTEXT
  5
12E
330
122
100
AcDbEntity
  8
EBENE_1
 62
     0
100
AcDbMText
 10
1.190625
 20
4.0927900738
 30
0.0
 40
3.175
 41
0.0
 71
     1
 72
     1
  1

  7
SLDTEXTSTYLE0
 73
     1
 44
1.0
  0
MTEXT
  5
12F
330
122
100
AcDbEntity
  8
EBENE_1
 62
     0
100
AcDbMText
 10
3.2925925916
 20
9.0316784373
 30
0.0
 40
3.175
 41
0.0
 71
     1
 72
     1
  1
2,00
  7
SLDTEXTSTYLE0
 73
     1
 44
1.0
  0
MTEXT
  5
130
330
122
100
AcDbEntity
  8
EBENE_1
 62
     0
100
AcDbMText
 10
2.1166665247
 20
4.0927898409
 30
0.0
 40
3.175
 41
0.0
 71
     1
 72
     1
  1
50,80
  7
SLDTEXTSTYLE0
 73
     1
 44
1.0
  0
MTEXT
  5
131
330
122
100
AcDbEntity
  8
EBENE_1
 62
     0
100
AcDbMText
 10
14.8313658863
 20
4.0927900738
 30
0.0
 40
3.175
 41
0.0
 71
     1
 72
     1
  1

  7
SLDTEXTSTYLE0
 73
     1
 44
1.0
  0
ENDBLK
  5
124
330
122
100
AcDbEntity
  8
0
100
AcDbBlockEnd
  0
BLOCK
  5
134
330
133
100
AcDbEntity
  8
0
100
AcDbBlockBegin
  2
SW_BLOCK_DIMENSION_17
 70
     0
 10
0.0
 20
0.0
 30
0.0
  3
SW_BLOCK_DIMENSION_17
  1

  0
SOLID
  5
136
330
133
100
AcDbEntity
  8
EBENE_1
 62
     0
100
AcDbTrace
 10
16.3971707594
 20
5.1887726877
 30
0.0
 11
15.9230196175
 21
2.1067902658
 31
0.0
 12
16.8713219012
 22
2.1067902658
 32
0.0
 13
16.8713219012
 23
2.1067902658
 33
0.0
  0
LINE
  5
137
330
133
100
AcDbEntity
  8
EBENE_1
 62
     0
100
AcDbLine
 10
3.2925925916
 20
9.671990294
 30
0.0
 11
2.2342592711
 21
9.671990294
 31
0.0
  0
LINE
  5
138
330
133
100
AcDbEntity
  8
EBENE_1
 62
     0
100
AcDbLine
 10
2.2342592711
 20
9.671990294
 30
0.0
 11
2.2342592711
 21
4.9388883635
 31
0.0
  0
LINE
  5
139
330
133
100
AcDbEntity
  8
EBENE_1
 62
     0
100
AcDbLine
 10
2.2342592711
 20
4.9388883635
 30
0.0
 11
3.2925925916
 21
4.9388883635
 31
0.0
  0
LINE
  5
13A
330
133
100
AcDbEntity
  8
EBENE_1
 62
     0
100
AcDbLine
 10
11.5240741288
 20
9.671990294
 30
0.0
 11
12.5824074494
 21
9.671990294
 31
0.0
  0
LINE
  5
13B
330
133
100
AcDbEntity
  8
EBENE_1
 62
     0
100
AcDbLine
 10
12.5824074494
 20
9.671990294
 30
0.0
 11
12.5824074494
 21
4.9388883635
 31
0.0
  0
LINE
  5
13C
330
133
100
AcDbEntity
  8
EBENE_1
 62
     0
100
AcDbLine
 10
12.5824074494
 20
4.9388883635
 30
0.0
 11
11.5240741288
 21
4.9388883635
 31
0.0
  0
LINE
  5
13D
330
133
100
AcDbEntity
  8
EBENE_1
 62
     0
100
AcDbLine
 10
23.60463321
 20
5.1887726877
 30
0.0
 11
14.8166669533
 21
5.1887726877
 31
0.0
  0
LINE
  5
13E
330
133
100
AcDbEntity
  8
EBENE_1
 62
     0
100
AcDbLine
 10
16.3971707594
 20
-20.2112273123
 30
0.0
 11
16.3971707594
 21
5.1887726877
 31
0.0
  0
MTEXT
  5
13F
330
133
100
AcDbEntity
  8
EBENE_1
 62
     0
100
AcDbMText
 10
1.190625
 20
4.0927900738
 30
0.0
 40
3.175
 41
0.0
 71
     1
 72
     1
  1

  7
SLDTEXTSTYLE0
 73
     1
 44
1.0
  0
MTEXT
  5
140
330
133
100
AcDbEntity
  8
EBENE_1
 62
     0
100
AcDbMText
 10
3.2925925916
 20
9.0316784373
 30
0.0
 40
3.175
 41
0.0
 71
     1
 72
     1
  1
3,00
  7
SLDTEXTSTYLE0
 73
     1
 44
1.0
  0
MTEXT
  5
141
330
133
100
AcDbEntity
  8
EBENE_1
 62
     0
100
AcDbMText
 10
2.1166665247
 20
4.0927898409
 30
0.0
 40
3.175
 41
0.0
 71
     1
 72
     1
  1
76,20
  7
SLDTEXTSTYLE0
 73
     1
 44
1.0
  0
MTEXT
  5
142
330
133
100
AcDbEntity
  8
EBENE_1
 62
     0
100
AcDbMText
 10
14.8313658863
 20
4.0927900738
 30
0.0
 40
3.175
 41
0.0
 71
     1
 72
     1
  1

  7
SLDTEXTSTYLE0
 73
     1
 44
1.0
  0
ENDBLK
  5
135
330
133
100
AcDbEntity
  8
0
100
AcDbBlockEnd
  0
BLOCK
  5
145
330
144
100
AcDbEntity
  8
0
100
AcDbBlockBegin
  2
SW_BLOCK_DIMENSION_18
 70
     0
 10
0.0
 20
0.0
 30
0.0
  3
SW_BLOCK_DIMENSION_18
  1

  0
SOLID
  5
147
330
144
100
AcDbEntity
  8
EBENE_1
 62
     0
100
AcDbTrace
 10
16.8675417449
 20
5.1887726877
 30
0.0
 11
16.3933906031
 21
2.1067902658
 31
0.0
 12
17.3416928867
 22
2.1067902658
 32
0.0
 13
17.3416928867
 23
2.1067902658
 33
0.0
  0
LINE
  5
148
330
144
100
AcDbEntity
  8
EBENE_1
 62
     0
100
AcDbLine
 10
3.5277780844
 20
9.671990294
 30
0.0
 11
2.4694447638
 21
9.671990294
 31
0.0
  0
LINE
  5
149
330
144
100
AcDbEntity
  8
EBENE_1
 62
     0
100
AcDbLine
 10
2.4694447638
 20
9.671990294
 30
0.0
 11
2.4694447638
 21
4.9388883635
 31
0.0
  0
LINE
  5
14A
330
144
100
AcDbEntity
  8
EBENE_1
 62
     0
100
AcDbLine
 10
2.4694447638
 20
4.9388883635
 30
0.0
 11
3.5277780844
 21
4.9388883635
 31
0.0
  0
LINE
  5
14B
330
144
100
AcDbEntity
  8
EBENE_1
 62
     0
100
AcDbLine
 10
11.7592596216
 20
9.671990294
 30
0.0
 11
12.8175929422
 21
9.671990294
 31
0.0
  0
LINE
  5
14C
330
144
100
AcDbEntity
  8
EBENE_1
 62
     0
100
AcDbLine
 10
12.8175929422
 20
9.671990294
 30
0.0
 11
12.8175929422
 21
4.9388883635
 31
0.0
  0
LINE
  5
14D
330
144
100
AcDbEntity
  8
EBENE_1
 62
     0
100
AcDbLine
 10
12.8175929422
 20
4.9388883635
 30
0.0
 11
11.7592596216
 21
4.9388883635
 31
0.0
  0
LINE
  5
14E
330
144
100
AcDbEntity
  8
EBENE_1
 62
     0
100
AcDbLine
 10
24.0750041956
 20
5.1887726877
 30
0.0
 11
15.2870379388
 21
5.1887726877
 31
0.0
  0
LINE
  5
14F
330
144
100
AcDbEntity
  8
EBENE_1
 62
     0
100
AcDbLine
 10
16.8675417449
 20
-20.2112273123
 30
0.0
 11
16.8675417449
 21
5.1887726877
 31
0.0
  0
MTEXT
  5
150
330
144
100
AcDbEntity
  8
EBENE_1
 62
     0
100
AcDbMText
 10
1.190625
 20
4.0927900738
 30
0.0
 40
3.175
 41
0.0
 71
     1
 72
     1
  1

  7
SLDTEXTSTYLE0
 73
     1
 44
1.0
  0
MTEXT
  5
151
330
144
100
AcDbEntity
  8
EBENE_1
 62
     0
100
AcDbMText
 10
3.5277780844
 20
9.0316784373
 30
0.0
 40
3.175
 41
0.0
 71
     1
 72
     1
  1
4,00
  7
SLDTEXTSTYLE0
 73
     1
 44
1.0
  0
MTEXT
  5
152
330
144
100
AcDbEntity
  8
EBENE_1
 62
     0
100
AcDbMText
 10
1.1759259505
 20
4.0927898409
 30
0.0
 40
3.175
 41
0.0
 71
     1
 72
     1
  1
101,60
  7
SLDTEXTSTYLE0
 73
     1
 44
1.0
  0
MTEXT
  5
153
330
144
100
AcDbEntity
  8
EBENE_1
 62
     0
100
AcDbMText
 10
15.3017368719
 20
4.0927900738
 30
0.0
 40
3.175
 41
0.0
 71
     1
 72
     1
  1

  7
SLDTEXTSTYLE0
 73
     1
 44
1.0
  0
ENDBLK
  5
146
330
144
100
AcDbEntity
  8
0
100
AcDbBlockEnd
  0
BLOCK
  5
156
330
155
100
AcDbEntity
  8
0
100
AcDbBlockBegin
  2
SW_BLOCK_DIMENSION_19
 70
     0
 10
0.0
 20
0.0
 30
0.0
  3
SW_BLOCK_DIMENSION_19
  1

  0
SOLID
  5
158
330
155
100
AcDbEntity
  8
EBENE_1
 62
     0
100
AcDbTrace
 10
16.3971707594
 20
5.1887726877
 30
0.0
 11
15.9230196175
 21
2.1067902658
 31
0.0
 12
16.8713219012
 22
2.1067902658
 32
0.0
 13
16.8713219012
 23
2.1067902658
 33
0.0
  0
LINE
  5
159
330
155
100
AcDbEntity
  8
EBENE_1
 62
     0
100
AcDbLine
 10
3.2925925916
 20
9.671990294
 30
0.0
 11
2.2342592711
 21
9.671990294
 31
0.0
  0
LINE
  5
15A
330
155
100
AcDbEntity
  8
EBENE_1
 62
     0
100
AcDbLine
 10
2.2342592711
 20
9.671990294
 30
0.0
 11
2.2342592711
 21
4.9388883635
 31
0.0
  0
LINE
  5
15B
330
155
100
AcDbEntity
  8
EBENE_1
 62
     0
100
AcDbLine
 10
2.2342592711
 20
4.9388883635
 30
0.0
 11
3.2925925916
 21
4.9388883635
 31
0.0
  0
LINE
  5
15C
330
155
100
AcDbEntity
  8
EBENE_1
 62
     0
100
AcDbLine
 10
11.5240741288
 20
9.671990294
 30
0.0
 11
12.5824074494
 21
9.671990294
 31
0.0
  0
LINE
  5
15D
330
155
100
AcDbEntity
  8
EBENE_1
 62
     0
100
AcDbLine
 10
12.5824074494
 20
9.671990294
 30
0.0
 11
12.5824074494
 21
4.9388883635
 31
0.0
  0
LINE
  5
15E
330
155
100
AcDbEntity
  8
EBENE_1
 62
     0
100
AcDbLine
 10
12.5824074494
 20
4.9388883635
 30
0.0
 11
11.5240741288
 21
4.9388883635
 31
0.0
  0
LINE
  5
15F
330
155
100
AcDbEntity
  8
EBENE_1
 62
     0
100
AcDbLine
 10
23.60463321
 20
5.1887726877
 30
0.0
 11
14.8166669533
 21
5.1887726877
 31
0.0
  0
LINE
  5
160
330
155
100
AcDbEntity
  8
EBENE_1
 62
     0
100
AcDbLine
 10
16.3971707594
 20
-20.2112273123
 30
0.0
 11
16.3971707594
 21
5.1887726877
 31
0.0
  0
MTEXT
  5
161
330
155
100
AcDbEntity
  8
EBENE_1
 62
     0
100
AcDbMText
 10
1.190625
 20
4.0927900738
 30
0.0
 40
3.175
 41
0.0
 71
     1
 72
     1
  1

  7
SLDTEXTSTYLE0
 73
     1
 44
1.0
  0
MTEXT
  5
162
330
155
100
AcDbEntity
  8
EBENE_1
 62
     0
100
AcDbMText
 10
3.2925925916
 20
9.0316784373
 30
0.0
 40
3.175
 41
0.0
 71
     1
 72
     1
  1
5,00
  7
SLDTEXTSTYLE0
 73
     1
 44
1.0
  0
MTEXT
  5
163
330
155
100
AcDbEntity
  8
EBENE_1
 62
     0
100
AcDbMText
 10
3.8805556251
 20
4.0927898409
 30
0.0
 40
3.175
 41
0.0
 71
     1
 72
     1
  1
127
  7
SLDTEXTSTYLE0
 73
     1
 44
1.0
  0
MTEXT
  5
164
330
155
100
AcDbEntity
  8
EBENE_1
 62
     0
100
AcDbMText
 10
14.8313658863
 20
4.0927900738
 30
0.0
 40
3.175
 41
0.0
 71
     1
 72
     1
  1

  7
SLDTEXTSTYLE0
 73
     1
 44
1.0
  0
ENDBLK
  5
157
330
155
100
AcDbEntity
  8
0
100
AcDbBlockEnd
  0
BLOCK
  5
167
330
166
100
AcDbEntity
  8
0
100
AcDbBlockBegin
  2
SW_NOTE_0
 70
     0
 10
0.0
 20
0.0
 30
0.0
  3
SW_NOTE_0
  1

  0
MTEXT
  5
169
330
166
100
AcDbEntity
  8
EBENE_1
 62
     0
100
AcDbMText
 10
6.7138020833
 20
4.7749217527
 30
0.0
 40
3.7041666667
 41
0.0
 71
     2
 72
     1
  1
(Inch)
  7
SLDTEXTSTYLE0
 73
     1
 44
1.0
  0
MTEXT
  5
16A
330
166
100
AcDbEntity
  8
EBENE_1
 62
     0
100
AcDbMText
 10
6.7309508326
 20
-1.1639672404
 30
0.0
 40
3.7041666667
 41
0.0
 71
     2
 72
     1
  1
mm
  7
SLDTEXTSTYLE0
 73
     1
 44
1.0
  0
ENDBLK
  5
168
330
166
100
AcDbEntity
  8
0
100
AcDbBlockEnd
  0
BLOCK
  5
172
330
171
100
AcDbEntity
  8
0
100
AcDbBlockBegin
  2
SW_NOTE_1
 70
     0
 10
0.0
 20
0.0
 30
0.0
  3
SW_NOTE_1
  1

  0
MTEXT
  5
174
330
171
100
AcDbEntity
  8
0
  6
Continuous
 62
     0
370
     0
100
AcDbMText
 10
19.893359375
 20
4.0927900738
 30
0.0
 40
3.175
 41
0.0
 71
     2
 72
     1
  1
ABP-Beyerle GmbH
  7
SLDTEXTSTYLE0
 73
     1
 44
1.0
  0
MTEXT
  5
175
330
171
100
AcDbEntity
  8
0
  6
Continuous
 62
     0
370
     0
100
AcDbMText
 10
20.6558884293
 20
-0.1405432084
 30
0.0
 40
3.175
 41
0.0
 71
     2
 72
     1
  1
Im Schollengarten 24b, 76646 Bruchsal
  7
SLDTEXTSTYLE0
 73
     1
 44
1.0
  0
MTEXT
  5
176
330
171
100
AcDbEntity
  8
0
  6
Continuous
 62
     0
370
     0
100
AcDbMText
 10
20.7863491923
 20
-4.3738764906
 30
0.0
 40
3.175
 41
0.0
 71
     2
 72
     1
  1
Tel. +49 (0)7251-9127-0, Fax. +49 (0)7251-9127-29
  7
SLDTEXTSTYLE0
 73
     1
 44
1.0
  0
MTEXT
  5
177
330
171
100
AcDbEntity
  8
0
  6
Continuous
 62
     0
370
     0
100
AcDbMText
 10
20.8392552227
 20
-8.6072097727
 30
0.0
 40
3.175
 41
0.0
 71
     2
 72
     1
  1
info@abp-beyerle.de, www.abp-beyerle.de
  7
SLDTEXTSTYLE0
 73
     1
 44
1.0
  0
ENDBLK
  5
173
330
171
100
AcDbEntity
  8
0
100
AcDbBlockEnd
  0
ENDSEC
  0
SECTION
  2
ENTITIES
  0
INSERT
  5
16D
330
1F
100
AcDbEntity
  8
EBENE_1
100
AcDbBlockReference
  2
Block1
 10
19.561342692
 20
-6.9223244521
 30
0.0
  0
MTEXT
  5
16F
330
1F
100
AcDbEntity
  8
0
  6
Continuous
 62
     7
370
     0
100
AcDbMText
 10
402.5
 20
14.7189135832
 30
0.0
 40
6.35
 41
0.0
 71
     1
 72
     1
  1
1:1
  7
SLDTEXTSTYLE1
 73
     1
 44
1.0
  0
MTEXT
  5
170
330
1F
100
AcDbEntity
  8
0
  6
Continuous
 62
     7
370
     0
100
AcDbMText
 10
168.4090458961
 20
14.7189131175
 30
0.0
 40
6.35
 41
0.0
 71
     1
 72
     1
  1
USU55DS-EF
  7
SLDTEXTSTYLE1
 73
     1
 44
1.0
  0
INSERT
  5
178
330
1F
100
AcDbEntity
  8
0
  6
Continuous
 62
     7
370
     0
100
AcDbBlockReference
  2
SW_NOTE_1
 10
35.4202146835
 20
20.1681939512
 30
0.0
  0
CIRCLE
  5
179
330
1F
100
AcDbEntity
  8
0
  6
CENTERX2
 62
     7
100
AcDbCircle
 10
205.1036123354
 20
2182.6226355128
 30
0.0
 40
6.750000000000012
  0
CIRCLE
  5
17A
330
1F
100
AcDbEntity
  8
0
  6
CENTERX2
 62
     7
100
AcDbCircle
 10
-545.8963876646
 20
2182.6226355128
 30
0.0
 40
6.749999999999904
  0
LINE
  5
17B
330
1F
100
AcDbEntity
  8
0
  6
Continuous
 62
     7
370
    15
100
AcDbLine
 10
-574.5963887256
 20
2121.022635638
 30
0.0
 11
-574.39638534
 21
2121.2226352982
 31
0.0
  0
LINE
  5
17C
330
1F
100
AcDbEntity
  8
0
  6
Continuous
 62
     7
370
    15
100
AcDbLine
 10
-574.39638534
 20
2139.0226353288
 30
0.0
 11
-574.5963887256
 21
2139.2226354547
 31
0.0
  0
LINE
  5
17D
330
1F
100
AcDbEntity
  8
0
  6
Continuous
 62
     7
370
    15
100
AcDbLine
 10
-579.69638565
 20
2121.022635638
 30
0.0
 11
-574.5963887256
 21
2121.022635638
 31
0.0
  0
LINE
  5
17E
330
1F
100
AcDbEntity
  8
0
  6
Continuous
 62
     7
370
    15
100
AcDbLine
 10
-574.5963887256
 20
2139.2226354547
 30
0.0
 11
-579.69638565
 21
2139.2226354547
 31
0.0
  0
LINE
  5
17F
330
1F
100
AcDbEntity
  8
0
  6
Continuous
 62
     7
370
    15
100
AcDbLine
 10
-579.69638565
 20
2139.2226354547
 30
0.0
 11
-579.8963890355
 21
2139.0226353288
 31
0.0
  0
LINE
  5
180
330
1F
100
AcDbEntity
  8
0
  6
Continuous
 62
     7
370
    15
100
AcDbLine
 10
-579.8963890355
 20
2121.2226352982
 30
0.0
 11
-579.69638565
 21
2121.022635638
 31
0.0
  0
LINE
  5
181
330
1F
100
AcDbEntity
  8
0
  6
Continuous
 62
     7
370
    15
100
AcDbLine
 10
1088.9036296923
 20
2121.022635638
 30
0.0
 11
1089.1036628801
 21
2121.2226352982
 31
0.0
  0
LINE
  5
182
330
1F
100
AcDbEntity
  8
0
  6
Continuous
 62
     7
370
    15
100
AcDbLine
 10
1089.1036628801
 20
2139.0226353288
 30
0.0
 11
1088.9036296923
 21
2139.2226354547
 31
0.0
  0
LINE
  5
183
330
1F
100
AcDbEntity
  8
0
  6
Continuous
 62
     7
370
    15
100
AcDbLine
 10
1088.9036296923
 20
2139.2226354547
 30
0.0
 11
1083.8036178667
 21
2139.2226354547
 31
0.0
  0
LINE
  5
184
330
1F
100
AcDbEntity
  8
0
  6
Continuous
 62
     7
370
    15
100
AcDbLine
 10
1083.8036178667
 20
2121.022635638
 30
0.0
 11
1088.9036296923
 21
2121.022635638
 31
0.0
  0
LINE
  5
185
330
1F
100
AcDbEntity
  8
0
  6
Continuous
 62
     7
370
    15
100
AcDbLine
 10
1083.8036178667
 20
2139.2226354547
 30
0.0
 11
1083.6035846788
 21
2139.0226353288
 31
0.0
  0
LINE
  5
186
330
1F
100
AcDbEntity
  8
0
  6
Continuous
 62
     7
370
    15
100
AcDbLine
 10
1083.6035846788
 20
2121.2226352982
 30
0.0
 11
1083.8036178667
 21
2121.022635638
 31
0.0
  0
ARC
  5
187
330
1F
100
AcDbEntity
  8
0
  6
Continuous
 62
     7
370
    15
100
AcDbCircle
 10
1058.9036123354
 20
2124.4726355128
 30
0.0
 40
0.3000000000001819
100
AcDbArc
 50
180.0
 51
270.0
  0
ARC
  5
188
330
1F
100
AcDbEntity
  8
0
  6
Continuous
 62
     7
370
    15
100
AcDbCircle
 10
1058.9036123354
 20
2135.7726355128
 30
0.0
 40
0.3000000000001819
100
AcDbArc
 50
90.0
 51
180.0
  0
LINE
  5
189
330
1F
100
AcDbEntity
  8
0
  6
Continuous
 62
     7
370
    15
100
AcDbLine
 10
1083.6035846788
 20
2136.0726352178
 30
0.0
 11
1058.9036583025
 21
2136.0726352178
 31
0.0
  0
LINE
  5
18A
330
1F
100
AcDbEntity
  8
0
  6
Continuous
 62
     7
370
    15
100
AcDbLine
 10
1058.9036583025
 20
2124.1726349436
 30
0.0
 11
1083.6035846788
 21
2124.1726349436
 31
0.0
  0
LINE
  5
18B
330
1F
100
AcDbEntity
  8
0
  6
Continuous
 62
     7
370
    15
100
AcDbLine
 10
-574.39638534
 20
2124.1726349436
 30
0.0
 11
-565.6963870805
 21
2124.1726349436
 31
0.0
  0
LINE
  5
18C
330
1F
100
AcDbEntity
  8
0
  6
Continuous
 62
     7
370
    15
100
AcDbLine
 10
-565.6963870805
 20
2136.0726352178
 30
0.0
 11
-574.39638534
 21
2136.0726352178
 31
0.0
  0
ARC
  5
18D
330
1F
100
AcDbEntity
  8
0
  6
Continuous
 62
     7
370
    15
100
AcDbCircle
 10
-565.6963876646
 20
2135.7726355128
 30
0.0
 40
0.3000000000001819
100
AcDbArc
 50
0.0
 51
90.0
  0
ARC
  5
18E
330
1F
100
AcDbEntity
  8
0
  6
Continuous
 62
     7
370
    15
100
AcDbCircle
 10
-565.6963876646
 20
2124.4726355128
 30
0.0
 40
0.3000000000001819
100
AcDbArc
 50
270.0
 51
0.0
  0
LINE
  5
18F
330
1F
100
AcDbEntity
  8
0
  6
Continuous
 62
     7
370
    15
100
AcDbLine
 10
1056.6036342699
 20
2125.1226361238
 30
0.0
 11
1058.6036085207
 21
2125.1226361238
 31
0.0
  0
LINE
  5
190
330
1F
100
AcDbEntity
  8
0
  6
Continuous
 62
     7
370
    15
100
AcDbLine
 10
1058.6036085207
 20
2135.1226359002
 30
0.0
 11
1056.6036342699
 21
2135.1226359002
 31
0.0
  0
LINE
  5
191
330
1F
100
AcDbEntity
  8
0
  6
Continuous
 62
     7
370
    15
100
AcDbLine
 10
-563.3963853996
 20
2135.1226359002
 30
0.0
 11
-565.3963894527
 21
2135.1226359002
 31
0.0
  0
LINE
  5
192
330
1F
100
AcDbEntity
  8
0
  6
Continuous
 62
     7
370
    15
100
AcDbLine
 10
-565.3963894527
 20
2125.1226361238
 30
0.0
 11
-563.3963853996
 21
2125.1226361238
 31
0.0
  0
LINE
  5
193
330
1F
100
AcDbEntity
  8
0
  6
Continuous
 62
     7
370
    15
100
AcDbLine
 10
-620.0963878017
 20
2138.5976355851
 30
0.0
 11
-620.3963872921
 21
2138.297635629
 31
0.0
  0
LINE
  5
194
330
1F
100
AcDbEntity
  8
0
  6
Continuous
 62
     7
370
    15
100
AcDbLine
 10
-620.3963872921
 20
2121.947636395
 30
0.0
 11
-620.0963878017
 21
2121.6476350419
 31
0.0
  0
LINE
  5
195
330
1F
100
AcDbEntity
  8
0
  6
Continuous
 62
     7
370
    15
100
AcDbLine
 10
-619.8894963544
 20
2138.5976355851
 30
0.0
 11
-620.0963878017
 21
2138.5976355851
 31
0.0
  0
LINE
  5
196
330
1F
100
AcDbEntity
  8
0
  6
Continuous
 62
     7
370
    15
100
AcDbLine
 10
-620.0963878017
 20
2121.6476350419
 30
0.0
 11
-609.6238926928
 21
2121.6476350419
 31
0.0
  0
LINE
  5
197
330
1F
100
AcDbEntity
  8
0
  6
Continuous
 62
     7
370
    15
100
AcDbLine
 10
-579.8963890355
 20
2138.5976355851
 30
0.0
 11
-579.9032808226
 21
2138.5976355851
 31
0.0
  0
LINE
  5
198
330
1F
100
AcDbEntity
  8
0
  6
Continuous
 62
     7
370
    15
100
AcDbLine
 10
-590.1688807588
 20
2121.6476350419
 30
0.0
 11
-579.8963890355
 21
2121.6476350419
 31
0.0
  0
LINE
  5
199
330
1F
100
AcDbEntity
  8
0
  6
Continuous
 62
     7
370
    15
100
AcDbLine
 10
1089.1036628801
 20
2121.6476350419
 30
0.0
 11
1099.3761657793
 21
2121.6476350419
 31
0.0
  0
LINE
  5
19A
330
1F
100
AcDbEntity
  8
0
  6
Continuous
 62
     7
370
    15
100
AcDbLine
 10
1089.1104578096
 20
2138.5976355851
 30
0.0
 11
1089.1036628801
 21
2138.5976355851
 31
0.0
  0
LINE
  5
19B
330
1F
100
AcDbEntity
  8
0
  6
Continuous
 62
     7
370
    15
100
AcDbLine
 10
1129.303657921
 20
2121.6476350419
 30
0.0
 11
1129.6035884935
 21
2121.947636395
 31
0.0
  0
LINE
  5
19C
330
1F
100
AcDbEntity
  8
0
  6
Continuous
 62
     7
370
    15
100
AcDbLine
 10
1129.6035884935
 20
2138.297635629
 30
0.0
 11
1129.303657921
 21
2138.5976355851
 31
0.0
  0
LINE
  5
19D
330
1F
100
AcDbEntity
  8
0
  6
Continuous
 62
     7
370
    15
100
AcDbLine
 10
1118.831121834
 20
2121.6476350419
 30
0.0
 11
1129.303657921
 21
2121.6476350419
 31
0.0
  0
LINE
  5
19E
330
1F
100
AcDbEntity
  8
0
  6
Continuous
 62
     7
370
    15
100
AcDbLine
 10
1129.303657921
 20
2138.5976355851
 30
0.0
 11
1129.0967105944
 21
2138.5976355851
 31
0.0
  0
LINE
  5
19F
330
1F
100
AcDbEntity
  8
0
  6
Continuous
 62
     7
370
    15
100
AcDbLine
 10
-560.8963877838
 20
2132.1226354085
 30
0.0
 11
-563.3963853996
 21
2132.1226354085
 31
0.0
  0
LINE
  5
1A0
330
1F
100
AcDbEntity
  8
0
  6
Continuous
 62
     7
370
    15
100
AcDbLine
 10
-563.3963853996
 20
2126.1226362877
 30
0.0
 11
-560.8963877838
 21
2126.1226362877
 31
0.0
  0
ARC
  5
1A1
330
1F
100
AcDbEntity
  8
0
  6
Continuous
 62
     7
370
    15
100
AcDbCircle
 10
1050.4930134315
 20
2131.2949732106
 30
0.0
 40
5.000000000000393
100
AcDbArc
 50
265.7108466712
 51
299.125466729
  0
ARC
  5
1A2
330
1F
100
AcDbEntity
  8
0
  6
Continuous
 62
     7
370
    15
100
AcDbCircle
 10
1050.4930134315
 20
2126.950297815
 30
0.0
 40
5.000000000000393
100
AcDbArc
 50
60.874533271
 51
94.2891533288
  0
LINE
  5
1A3
330
1F
100
AcDbEntity
  8
0
  6
Continuous
 62
     7
370
    15
100
AcDbLine
 10
1050.1190065462
 20
2131.9362945251
 30
0.0
 11
1043.5288786013
 21
2131.4420258023
 31
0.0
  0
LINE
  5
1A4
330
1F
100
AcDbEntity
  8
0
  6
Continuous
 62
     7
370
    15
100
AcDbLine
 10
1043.5288786013
 20
2126.8032449626
 30
0.0
 11
1050.1190065462
 21
2126.3089771711
 31
0.0
  0
ARC
  5
1A5
330
1F
100
AcDbEntity
  8
0
  6
Continuous
 62
     7
370
    15
100
AcDbCircle
 10
1043.6036123354
 20
2130.4448269568
 30
0.0
 40
1.000000000000385
100
AcDbArc
 50
94.2891533288
 51
180.0
  0
ARC
  5
1A6
330
1F
100
AcDbEntity
  8
0
  6
Continuous
 62
     7
370
    15
100
AcDbCircle
 10
1043.6036123354
 20
2127.8004440688
 30
0.0
 40
1.000000000000403
100
AcDbArc
 50
180.0
 51
265.7108466712
  0
ARC
  5
1A7
330
1F
100
AcDbEntity
  8
0
  6
Continuous
 62
     7
370
    15
100
AcDbCircle
 10
1055.6036123354
 20
2136.1226355128
 30
0.0
 40
5.5
100
AcDbArc
 50
240.874533271
 51
270.0
  0
ARC
  5
1A8
330
1F
100
AcDbEntity
  8
0
  6
Continuous
 62
     7
370
    15
100
AcDbCircle
 10
1055.6036123354
 20
2122.1226355128
 30
0.0
 40
5.500000000000455
100
AcDbArc
 50
90.0
 51
119.125466729
  0
LINE
  5
1A9
330
1F
100
AcDbEntity
  8
0
  6
Continuous
 62
     7
370
    15
100
AcDbLine
 10
1056.6036342699
 20
2130.6226351626
 30
0.0
 11
1055.6035875399
 21
2130.6226351626
 31
0.0
  0
LINE
  5
1AA
330
1F
100
AcDbEntity
  8
0
  6
Continuous
 62
     7
370
    15
100
AcDbLine
 10
1055.6035875399
 20
2127.6226356022
 30
0.0
 11
1056.6036342699
 21
2127.6226356022
 31
0.0
  0
LINE
  5
1AB
330
1F
100
AcDbEntity
  8
0
  6
Continuous
 62
     7
370
    15
100
AcDbLine
 10
233.1734537203
 20
59.1225973658
 30
0.0
 11
233.1035970766
 21
55.1226488643
 31
0.0
  0
LINE
  5
1AC
330
1F
100
AcDbEntity
  8
0
  6
Continuous
 62
     7
370
    15
100
AcDbLine
 10
261.1035942156
 20
55.1226488643
 30
0.0
 11
261.0337971766
 21
59.1225973658
 31
0.0
  0
LINE
  5
1AD
330
1F
100
AcDbEntity
  8
0
  6
Continuous
 62
     7
370
    15
100
AcDbLine
 10
1153.6036371309
 20
2131.6226353266
 30
0.0
 11
1154.6035646517
 21
2132.6226354905
 31
0.0
  0
LINE
  5
1AE
330
1F
100
AcDbEntity
  8
0
  6
Continuous
 62
     7
370
    15
100
AcDbLine
 10
1154.6035646517
 20
2155.6226355352
 30
0.0
 11
1153.6036371309
 21
2156.6226356991
 31
0.0
  0
LINE
  5
1AF
330
1F
100
AcDbEntity
  8
0
  6
Continuous
 62
     7
370
    15
100
AcDbLine
 10
-644.3963876171
 20
2156.6226356991
 30
0.0
 11
-645.3963876646
 21
2155.6226355352
 31
0.0
  0
LINE
  5
1B0
330
1F
100
AcDbEntity
  8
0
  6
Continuous
 62
     7
370
    15
100
AcDbLine
 10
-645.3963876646
 20
2132.6226354905
 30
0.0
 11
-644.3963876171
 21
2131.6226353266
 31
0.0
  0
LINE
  5
1B1
330
1F
100
AcDbEntity
  8
0
  6
Continuous
 62
     7
370
    15
100
AcDbLine
 10
-644.3963876171
 20
2131.6226353266
 30
0.0
 11
-620.3963872921
 21
2131.6226353266
 31
0.0
  0
LINE
  5
1B2
330
1F
100
AcDbEntity
  8
0
  6
Continuous
 62
     7
370
    15
100
AcDbLine
 10
-530.8963865917
 20
2131.6226353266
 30
0.0
 11
190.1036142427
 21
2131.6226353266
 31
0.0
  0
LINE
  5
1B3
330
1F
100
AcDbEntity
  8
0
  6
Continuous
 62
     7
370
    15
100
AcDbLine
 10
220.1035856325
 20
2131.6226353266
 30
0.0
 11
1045.9369062502
 21
2131.6226353266
 31
0.0
  0
LINE
  5
1B4
330
1F
100
AcDbEntity
  8
0
  6
Continuous
 62
     7
370
    15
100
AcDbLine
 10
1052.2732376177
 20
2131.6226353266
 30
0.0
 11
1056.6036342699
 21
2131.6226353266
 31
0.0
  0
LINE
  5
1B5
330
1F
100
AcDbEntity
  8
0
  6
Continuous
 62
     7
370
    15
100
AcDbLine
 10
1129.6035884935
 20
2131.6226353266
 30
0.0
 11
1153.6036371309
 21
2131.6226353266
 31
0.0
  0
LINE
  5
1B6
330
1F
100
AcDbEntity
  8
0
  6
Continuous
 62
     7
370
    15
100
AcDbLine
 10
1153.6036371309
 20
2156.6226356991
 30
0.0
 11
1118.7860607225
 21
2156.6226356991
 31
0.0
  0
LINE
  5
1B7
330
1F
100
AcDbEntity
  8
0
  6
Continuous
 62
     7
370
    15
100
AcDbLine
 10
1099.4211076815
 20
2156.6226356991
 30
0.0
 11
220.1035856325
 21
2156.6226356991
 31
0.0
  0
LINE
  5
1B8
330
1F
100
AcDbEntity
  8
0
  6
Continuous
 62
     7
370
    15
100
AcDbLine
 10
190.1036142427
 20
2156.6226356991
 30
0.0
 11
-530.8963865917
 21
2156.6226356991
 31
0.0
  0
LINE
  5
1B9
330
1F
100
AcDbEntity
  8
0
  6
Continuous
 62
     7
370
    15
100
AcDbLine
 10
-560.8963877838
 20
2156.6226356991
 30
0.0
 11
-590.2139306944
 21
2156.6226356991
 31
0.0
  0
LINE
  5
1BA
330
1F
100
AcDbEntity
  8
0
  6
Continuous
 62
     7
370
    15
100
AcDbLine
 10
-609.5788464826
 20
2156.6226356991
 30
0.0
 11
-644.3963876171
 21
2156.6226356991
 31
0.0
  0
LINE
  5
1BB
330
1F
100
AcDbEntity
  8
0
  6
Continuous
 62
     7
370
    15
100
AcDbLine
 10
-574.39638534
 20
2137.0472004965
 30
0.0
 11
-574.39638534
 21
2121.2226352982
 31
0.0
  0
LINE
  5
1BC
330
1F
100
AcDbEntity
  8
0
  6
Continuous
 62
     7
370
    15
100
AcDbLine
 10
-574.39638534
 20
2139.0226353288
 30
0.0
 11
-574.39638534
 21
2137.0472004965
 31
0.0
  0
LINE
  5
1BD
330
1F
100
AcDbEntity
  8
0
  6
Continuous
 62
     7
370
    15
100
AcDbLine
 10
-574.5963887256
 20
2137.2028086662
 30
0.0
 11
-574.5963887256
 21
2139.2226354547
 31
0.0
  0
LINE
  5
1BE
330
1F
100
AcDbEntity
  8
0
  6
Continuous
 62
     7
370
    15
100
AcDbLine
 10
-574.5963887256
 20
2121.022635638
 30
0.0
 11
-574.5963887256
 21
2137.2028086662
 31
0.0
  0
LINE
  5
1BF
330
1F
100
AcDbEntity
  8
0
  6
Continuous
 62
     7
370
    15
100
AcDbLine
 10
-579.69638565
 20
2137.2028086662
 30
0.0
 11
-579.69638565
 21
2121.022635638
 31
0.0
  0
LINE
  5
1C0
330
1F
100
AcDbEntity
  8
0
  6
Continuous
 62
     7
370
    15
100
AcDbLine
 10
-579.69638565
 20
2139.2226354547
 30
0.0
 11
-579.69638565
 21
2137.2028086662
 31
0.0
  0
LINE
  5
1C1
330
1F
100
AcDbEntity
  8
0
  6
Continuous
 62
     7
370
    15
100
AcDbLine
 10
-579.8963890355
 20
2137.0472004965
 30
0.0
 11
-579.8963890355
 21
2139.0226353288
 31
0.0
  0
LINE
  5
1C2
330
1F
100
AcDbEntity
  8
0
  6
Continuous
 62
     7
370
    15
100
AcDbLine
 10
-579.8963890355
 20
2121.2226352982
 30
0.0
 11
-579.8963890355
 21
2137.0472004965
 31
0.0
  0
LINE
  5
1C3
330
1F
100
AcDbEntity
  8
0
  6
Continuous
 62
     7
370
    15
100
AcDbLine
 10
1088.9036296923
 20
2121.022635638
 30
0.0
 11
1088.9036296923
 21
2139.2226354547
 31
0.0
  0
LINE
  5
1C4
330
1F
100
AcDbEntity
  8
0
  6
Continuous
 62
     7
370
    15
100
AcDbLine
 10
1089.1036628801
 20
2139.0226353288
 30
0.0
 11
1089.1036628801
 21
2121.2226352982
 31
0.0
  0
LINE
  5
1C5
330
1F
100
AcDbEntity
  8
0
  6
Continuous
 62
     7
370
    15
100
AcDbLine
 10
1083.8036178667
 20
2139.2226354547
 30
0.0
 11
1083.8036178667
 21
2121.022635638
 31
0.0
  0
LINE
  5
1C6
330
1F
100
AcDbEntity
  8
0
  6
Continuous
 62
     7
370
    15
100
AcDbLine
 10
1083.6035846788
 20
2121.2226352982
 30
0.0
 11
1083.6035846788
 21
2139.0226353288
 31
0.0
  0
LINE
  5
1C7
330
1F
100
AcDbEntity
  8
0
  6
Continuous
 62
     7
370
    15
100
AcDbLine
 10
1058.6036085207
 20
2124.4726362966
 30
0.0
 11
1058.6036085207
 21
2135.7726357274
 31
0.0
  0
LINE
  5
1C8
330
1F
100
AcDbEntity
  8
0
  6
Continuous
 62
     7
370
    15
100
AcDbLine
 10
-565.3963894527
 20
2135.7726357274
 30
0.0
 11
-565.3963894527
 21
2124.4726362966
 31
0.0
  0
LINE
  5
1C9
330
1F
100
AcDbEntity
  8
0
  6
Continuous
 62
     7
370
    15
100
AcDbLine
 10
1056.6036342699
 20
2127.3582722388
 30
0.0
 11
1056.6036342699
 21
2125.1226361238
 31
0.0
  0
LINE
  5
1CA
330
1F
100
AcDbEntity
  8
0
  6
Continuous
 62
     7
370
    15
100
AcDbLine
 10
1056.6036342699
 20
2135.1226359002
 30
0.0
 11
1056.6036342699
 21
2127.3582722388
 31
0.0
  0
LINE
  5
1CB
330
1F
100
AcDbEntity
  8
0
  6
Continuous
 62
     7
370
    15
100
AcDbLine
 10
-563.3963853996
 20
2128.4921500229
 30
0.0
 11
-563.3963853996
 21
2135.1226359002
 31
0.0
  0
LINE
  5
1CC
330
1F
100
AcDbEntity
  8
0
  6
Continuous
 62
     7
370
    15
100
AcDbLine
 10
-563.3963853996
 20
2125.1226361238
 30
0.0
 11
-563.3963853996
 21
2128.4921500229
 31
0.0
  0
LINE
  5
1CD
330
1F
100
AcDbEntity
  8
0
  6
Continuous
 62
     7
370
    15
100
AcDbLine
 10
-620.0963878017
 20
2138.5976355851
 30
0.0
 11
-620.0963878017
 21
2121.6476350419
 31
0.0
  0
LINE
  5
1CE
330
1F
100
AcDbEntity
  8
0
  6
Continuous
 62
     7
370
    15
100
AcDbLine
 10
-620.3963872921
 20
2121.947636395
 30
0.0
 11
-620.3963872921
 21
2138.297635629
 31
0.0
  0
LINE
  5
1CF
330
1F
100
AcDbEntity
  8
0
  6
Continuous
 62
     7
370
    15
100
AcDbLine
 10
1129.303657921
 20
2121.6476350419
 30
0.0
 11
1129.303657921
 21
2138.5976355851
 31
0.0
  0
LINE
  5
1D0
330
1F
100
AcDbEntity
  8
0
  6
Continuous
 62
     7
370
    15
100
AcDbLine
 10
1129.6035884935
 20
2138.297635629
 30
0.0
 11
1129.6035884935
 21
2121.947636395
 31
0.0
  0
CIRCLE
  5
1D1
330
1F
100
AcDbEntity
  8
0
  6
Continuous
 62
     7
370
    15
100
AcDbCircle
 10
-599.8963876646
 20
2139.1226355128
 30
0.0
 40
18.00000000000001
  0
CIRCLE
  5
1D2
330
1F
100
AcDbEntity
  8
0
  6
Continuous
 62
     7
370
    15
100
AcDbCircle
 10
-599.8963876646
 20
2139.1226355128
 30
0.0
 40
19.99999999999999
  0
CIRCLE
  5
1D3
330
1F
100
AcDbEntity
  8
0
  6
Continuous
 62
     7
370
    15
100
AcDbCircle
 10
-599.4460746484
 20
2130.1339082287
 30
0.0
 40
1.300000000000081
  0
CIRCLE
  5
1D4
330
1F
100
AcDbEntity
  8
0
  6
Continuous
 62
     7
370
    15
100
AcDbCircle
 10
-608.8851149487
 20
2138.6723224966
 30
0.0
 40
1.300000000000104
  0
CIRCLE
  5
1D5
330
1F
100
AcDbEntity
  8
0
  6
Continuous
 62
     7
370
    15
100
AcDbCircle
 10
-590.9076603805
 20
2139.572948529
 30
0.0
 40
1.299999999999968
  0
CIRCLE
  5
1D6
330
1F
100
AcDbEntity
  8
0
  6
Continuous
 62
     7
370
    15
100
AcDbCircle
 10
-600.3467006808
 20
2148.1113627969
 30
0.0
 40
1.299999999999945
  0
CIRCLE
  5
1D7
330
1F
100
AcDbEntity
  8
0
  6
Continuous
 62
     7
370
    15
100
AcDbCircle
 10
1109.1036123354
 20
2139.1226355128
 30
0.0
 40
17.99999999999983
  0
CIRCLE
  5
1D8
330
1F
100
AcDbEntity
  8
0
  6
Continuous
 62
     7
370
    15
100
AcDbCircle
 10
1109.1036123354
 20
2139.1226355128
 30
0.0
 40
19.99999999999994
  0
CIRCLE
  5
1D9
330
1F
100
AcDbEntity
  8
0
  6
Continuous
 62
     7
370
    15
100
AcDbCircle
 10
1100.9783432452
 20
2135.252234731
 30
0.0
 40
1.300000000000266
  0
CIRCLE
  5
1DA
330
1F
100
AcDbEntity
  8
0
  6
Continuous
 62
     7
370
    15
100
AcDbCircle
 10
1117.2288814256
 20
2142.9930362946
 30
0.0
 40
1.300000000000061
  0
CIRCLE
  5
1DB
330
1F
100
AcDbEntity
  8
0
  6
Continuous
 62
     7
370
    15
100
AcDbCircle
 10
1105.2332115536
 20
2147.247904603
 30
0.0
 40
1.300000000000266
  0
CIRCLE
  5
1DC
330
1F
100
AcDbEntity
  8
0
  6
Continuous
 62
     7
370
    15
100
AcDbCircle
 10
1112.9740131172
 20
2130.9973664226
 30
0.0
 40
1.299999999999865
  0
LINE
  5
1DD
330
1F
100
AcDbEntity
  8
0
  6
Continuous
 62
     7
370
    15
100
AcDbLine
 10
1042.6035760958
 20
2127.8004437082
 30
0.0
 11
1042.6035760958
 21
2130.4448270567
 31
0.0
  0
CIRCLE
  5
1DE
330
1F
100
AcDbEntity
  8
0
  6
Continuous
 62
     7
370
    15
100
AcDbCircle
 10
-545.8963876646
 20
2124.1226355128
 30
0.0
 40
15.00000000000016
  0
CIRCLE
  5
1DF
330
1F
100
AcDbEntity
  8
0
  6
Continuous
 62
     7
370
    15
100
AcDbCircle
 10
-545.8963876646
 20
2124.1226355128
 30
0.0
 40
13.00000000000011
  0
CIRCLE
  5
1E0
330
1F
100
AcDbEntity
  8
0
  6
Continuous
 62
     7
370
    15
100
AcDbCircle
 10
-539.2290813709
 20
2125.1759762864
 30
0.0
 40
1.250000000000334
  0
CIRCLE
  5
1E1
330
1F
100
AcDbEntity
  8
0
  6
Continuous
 62
     7
370
    15
100
AcDbCircle
 10
-546.9497284382
 20
2130.7899418066
 30
0.0
 40
1.250000000000765
  0
CIRCLE
  5
1E2
330
1F
100
AcDbEntity
  8
0
  6
Continuous
 62
     7
370
    15
100
AcDbCircle
 10
-552.5636939583
 20
2123.0692947392
 30
0.0
 40
1.249999999999849
  0
CIRCLE
  5
1E3
330
1F
100
AcDbEntity
  8
0
  6
Continuous
 62
     7
370
    15
100
AcDbCircle
 10
-544.843046891
 20
2117.4553292191
 30
0.0
 40
1.249999999999417
  0
CIRCLE
  5
1E4
330
1F
100
AcDbEntity
  8
0
  6
Continuous
 62
     7
370
    15
100
AcDbCircle
 10
205.1036123354
 20
2124.1226355128
 30
0.0
 40
13.00000000000013
  0
CIRCLE
  5
1E5
330
1F
100
AcDbEntity
  8
0
  6
Continuous
 62
     7
370
    15
100
AcDbCircle
 10
211.7709186291
 20
2125.1759762864
 30
0.0
 40
1.25000000000032
  0
CIRCLE
  5
1E6
330
1F
100
AcDbEntity
  8
0
  6
Continuous
 62
     7
370
    15
100
AcDbCircle
 10
204.0502715618
 20
2130.7899418066
 30
0.0
 40
1.250000000000765
  0
CIRCLE
  5
1E7
330
1F
100
AcDbEntity
  8
0
  6
Continuous
 62
     7
370
    15
100
AcDbCircle
 10
198.4363060417
 20
2123.0692947392
 30
0.0
 40
1.249999999999867
  0
CIRCLE
  5
1E8
330
1F
100
AcDbEntity
  8
0
  6
Continuous
 62
     7
370
    15
100
AcDbCircle
 10
206.156953109
 20
2117.4553292191
 30
0.0
 40
1.249999999999404
  0
CIRCLE
  5
1E9
330
1F
100
AcDbEntity
  8
0
  6
Continuous
 62
     7
370
    15
100
AcDbCircle
 10
205.1036123354
 20
2124.1226355128
 30
0.0
 40
15.00000000000017
  0
ARC
  5
1EA
330
1F
100
AcDbEntity
  8
0
  6
Continuous
 62
     7
370
    15
100
AcDbCircle
 10
205.1036123354
 20
2124.1226355128
 30
0.0
 40
7.500000000000018
100
AcDbArc
 50
90.0
 51
107.0370516422
  0
LWPOLYLINE
  5
1EB
330
1F
100
AcDbEntity
  8
0
  6
Continuous
 62
     7
370
    15
100
AcDbPolyline
 90
        3
 70
   128
 43
0.0
 10
197.6045607645
 20
2124.0024208419
 10
197.7390288431
 20
2122.7039224796
 10
197.9327439386
 20
2121.92521201
  0
LWPOLYLINE
  5
1EC
330
1F
100
AcDbEntity
  8
0
  6
Continuous
 62
     7
370
    15
100
AcDbPolyline
 90
        3
 70
   128
 43
0.0
 10
205.2238225061
 20
2116.6235986494
 10
206.1215280611
 20
2116.6920340948
 10
207.3010443766
 20
2116.951768785
  0
LWPOLYLINE
  5
1ED
330
1F
100
AcDbEntity
  8
0
  6
Continuous
 62
     7
370
    15
100
AcDbPolyline
 90
        3
 70
   128
 43
0.0
 10
212.6026391108
 20
2124.2428492151
 10
212.578439625
 20
2124.7367798679
 10
212.2744559366
 20
2126.3200599097
  0
LWPOLYLINE
  5
1EE
330
1F
100
AcDbEntity
  8
0
  6
Continuous
 62
     7
370
    15
100
AcDbPolyline
 90
        3
 70
   128
 43
0.0
 10
212.3975991327
 20
2126.2575383626
 10
212.678098591
 20
2124.744968056
 10
212.7005099375
 20
2124.3402804576
  0
LWPOLYLINE
  5
1EF
330
1F
100
AcDbEntity
  8
0
  6
Continuous
 62
     7
370
    15
100
AcDbPolyline
 90
        3
 70
   128
 43
0.0
 10
207.2385191042
 20
2116.8286535286
 10
206.1351179201
 20
2116.5929599993
 10
205.3212761004
 20
2116.525752037
  0
LWPOLYLINE
  5
1F0
330
1F
100
AcDbEntity
  8
0
  6
Continuous
 62
     7
370
    15
100
AcDbPolyline
 90
        3
 70
   128
 43
0.0
 10
197.8096007425
 20
2121.9877335571
 10
197.6408003885
 20
2122.6850054555
 10
197.5067495424
 20
2123.9049895995
  0
LWPOLYLINE
  5
1F1
330
1F
100
AcDbEntity
  8
0
  6
Continuous
 62
     7
370
    15
100
AcDbPolyline
 90
        3
 70
   128
 43
0.0
 10
202.9686807711
 20
2131.4166183911
 10
203.2640813906
 20
2131.4966478713
 10
204.8859833796
 20
2131.71951802
  0
ARC
  5
1F2
330
1F
100
AcDbEntity
  8
0
  6
Continuous
 62
     7
370
    15
100
AcDbCircle
 10
205.1036123354
 20
2124.1226355128
 30
0.0
 40
6.425000000000131
100
AcDbArc
 50
88.4616106162
 51
109.4938413701
  0
LWPOLYLINE
  5
1F3
330
1F
100
AcDbEntity
  8
0
  6
Continuous
 62
     7
370
    15
100
AcDbPolyline
 90
        3
 70
   128
 43
0.0
 10
198.6809014399
 20
2124.2951243513
 10
198.7752555925
 20
2123.0125832699
 10
199.0469335634
 20
2121.9785786562
  0
ARC
  5
1F4
330
1F
100
AcDbEntity
  8
0
  6
Continuous
 62
     7
370
    15
100
AcDbCircle
 10
205.1036123354
 20
2124.1226355128
 30
0.0
 40
6.425000000000167
100
AcDbArc
 50
268.4616151866
 51
289.4938368423
  0
LWPOLYLINE
  5
1F5
330
1F
100
AcDbEntity
  8
0
  6
Continuous
 62
     7
370
    15
100
AcDbPolyline
 90
        3
 70
   128
 43
0.0
 10
211.5262984354
 20
2123.9501457058
 10
211.4320038874
 20
2125.2326886498
 10
211.1603259165
 20
2126.2666932635
  0
ARC
  5
1F6
330
1F
100
AcDbEntity
  8
0
  6
Continuous
 62
     7
370
    15
100
AcDbCircle
 10
205.1036123354
 20
2124.1226355128
 30
0.0
 40
6.525000000000026
100
AcDbArc
 50
358.3470335013
 51
19.6084185184
  0
LWPOLYLINE
  5
1F7
330
1F
100
AcDbEntity
  8
0
  6
Continuous
 62
     7
370
    15
100
AcDbPolyline
 90
        3
 70
   128
 43
0.0
 10
207.2933553774
 20
2117.9760317646
 10
206.144535454
 20
2117.6812029772
 10
204.9153684694
 20
2117.6003511392
  0
ARC
  5
1F8
330
1F
100
AcDbEntity
  8
0
  6
Continuous
 62
     7
370
    15
100
AcDbCircle
 10
205.1036123354
 20
2124.1226355128
 30
0.0
 40
6.524999999999974
100
AcDbArc
 50
178.3470335077
 51
199.608418511
  0
ARC
  5
1F9
330
1F
100
AcDbEntity
  8
0
  6
Continuous
 62
     7
370
    15
100
AcDbCircle
 10
205.1036123354
 20
2124.1226355128
 30
0.0
 40
6.525000000000113
100
AcDbArc
 50
88.3470306294
 51
109.6084213745
  0
LWPOLYLINE
  5
1FA
330
1F
100
AcDbEntity
  8
0
  6
Continuous
 62
     7
370
    15
100
AcDbPolyline
 90
        3
 70
   128
 43
0.0
 10
-538.6024028938
 20
2126.2575383626
 10
-538.3219108861
 20
2124.744968056
 10
-538.2995069902
 20
2124.3402804576
  0
LWPOLYLINE
  5
1FB
330
1F
100
AcDbEntity
  8
0
  6
Continuous
 62
     7
370
    15
100
AcDbPolyline
 90
        3
 70
   128
 43
0.0
 10
-543.7614829224
 20
2116.8286516659
 10
-544.864891557
 20
2116.5929599993
 10
-545.6787408274
 20
2116.525752037
  0
LWPOLYLINE
  5
1FC
330
1F
100
AcDbEntity
  8
0
  6
Continuous
 62
     7
370
    15
100
AcDbPolyline
 90
        3
 70
   128
 43
0.0
 10
-553.1903714817
 20
2121.9877335571
 10
-553.3591792863
 20
2122.6850054555
 10
-553.4932673853
 20
2123.9049895995
  0
LWPOLYLINE
  5
1FD
330
1F
100
AcDbEntity
  8
0
  6
Continuous
 62
     7
370
    15
100
AcDbPolyline
 90
        3
 70
   128
 43
0.0
 10
-548.0312914532
 20
2131.4166183911
 10
-547.7359355371
 20
2131.4966478713
 10
-546.1140335482
 20
2131.71951802
  0
ARC
  5
1FE
330
1F
100
AcDbEntity
  8
0
  6
Continuous
 62
     7
370
    15
100
AcDbCircle
 10
-545.8963876646
 20
2124.1226355128
 30
0.0
 40
7.499999999999975
100
AcDbArc
 50
90.0
 51
107.0370424342
  0
LWPOLYLINE
  5
1FF
330
1F
100
AcDbEntity
  8
0
  6
Continuous
 62
     7
370
    15
100
AcDbPolyline
 90
        3
 70
   128
 43
0.0
 10
-553.3954263609
 20
2124.0024208419
 10
-553.260980634
 20
2122.7039224796
 10
-553.0672506373
 20
2121.92521201
  0
LWPOLYLINE
  5
200
330
1F
100
AcDbEntity
  8
0
  6
Continuous
 62
     7
370
    15
100
AcDbPolyline
 90
        3
 70
   128
 43
0.0
 10
-545.7761720698
 20
2116.6235986494
 10
-544.8784665149
 20
2116.6920340948
 10
-543.6989651006
 20
2116.951768785
  0
LWPOLYLINE
  5
201
330
1F
100
AcDbEntity
  8
0
  6
Continuous
 62
     7
370
    15
100
AcDbPolyline
 90
        3
 70
   128
 43
0.0
 10
-538.3973480146
 20
2124.2428492151
 10
-538.4215773027
 20
2124.7367798679
 10
-538.7255237382
 20
2126.3200599097
  0
ARC
  5
202
330
1F
100
AcDbEntity
  8
0
  6
Continuous
 62
     7
370
    15
100
AcDbCircle
 10
-545.8963876646
 20
2124.1226355128
 30
0.0
 40
6.425000000000003
100
AcDbArc
 50
88.4616168189
 51
109.4938352011
  0
LWPOLYLINE
  5
203
330
1F
100
AcDbEntity
  8
0
  6
Continuous
 62
     7
370
    15
100
AcDbPolyline
 90
        3
 70
   128
 43
0.0
 10
-552.3190707844
 20
2124.2951243513
 10
-552.2247687858
 20
2123.0125832699
 10
-551.9530908149
 20
2121.9785786562
  0
ARC
  5
204
330
1F
100
AcDbEntity
  8
0
  6
Continuous
 62
     7
370
    15
100
AcDbCircle
 10
-545.8963876646
 20
2124.1226355128
 30
0.0
 40
6.425000000000117
100
AcDbArc
 50
268.4616168215
 51
289.4938351983
  0
LWPOLYLINE
  5
205
330
1F
100
AcDbEntity
  8
0
  6
Continuous
 62
     7
370
    15
100
AcDbPolyline
 90
        3
 70
   128
 43
0.0
 10
-539.4737035912
 20
2123.9501457058
 10
-539.5680055898
 20
2125.2326886498
 10
-539.8396835607
 20
2126.2666932635
  0
ARC
  5
206
330
1F
100
AcDbEntity
  8
0
  6
Continuous
 62
     7
370
    15
100
AcDbCircle
 10
-545.8963876646
 20
2124.1226355128
 30
0.0
 40
6.525
100
AcDbArc
 50
358.3470335022
 51
19.6084185178
  0
LWPOLYLINE
  5
207
330
1F
100
AcDbEntity
  8
0
  6
Continuous
 62
     7
370
    15
100
AcDbPolyline
 90
        3
 70
   128
 43
0.0
 10
-543.7066615503
 20
2117.9760317646
 10
-544.8554442208
 20
2117.6812029772
 10
-546.0846037548
 20
2117.6003511392
  0
ARC
  5
208
330
1F
100
AcDbEntity
  8
0
  6
Continuous
 62
     7
370
    15
100
AcDbCircle
 10
-545.8963876646
 20
2124.1226355128
 30
0.0
 40
6.525000000000126
100
AcDbArc
 50
178.3470335022
 51
199.6084185177
  0
ARC
  5
209
330
1F
100
AcDbEntity
  8
0
  6
Continuous
 62
     7
370
    15
100
AcDbCircle
 10
-545.8963876646
 20
2124.1226355128
 30
0.0
 40
6.524999999999967
100
AcDbArc
 50
88.3470335018
 51
109.6084185182
  0
LINE
  5
20A
330
1F
100
AcDbEntity
  8
0
  6
Continuous
 62
     7
370
    15
100
AcDbLine
 10
220.1035856325
 20
2182.6226353042
 30
0.0
 11
220.1035856325
 21
2109.1226353638
 31
0.0
  0
LINE
  5
20B
330
1F
100
AcDbEntity
  8
0
  6
Continuous
 62
     7
370
    15
100
AcDbLine
 10
190.1036142427
 20
2109.1226353638
 30
0.0
 11
190.1036142427
 21
2182.6226353042
 31
0.0
  0
LINE
  5
20C
330
1F
100
AcDbEntity
  8
0
  6
Continuous
 62
     7
370
    15
100
AcDbLine
 10
-530.8963865917
 20
2182.6226353042
 30
0.0
 11
-530.8963865917
 21
2109.1226353638
 31
0.0
  0
LINE
  5
20D
330
1F
100
AcDbEntity
  8
0
  6
Continuous
 62
     7
370
    15
100
AcDbLine
 10
-560.8963877838
 20
2109.1226353638
 30
0.0
 11
-560.8963877838
 21
2182.6226353042
 31
0.0
  0
LINE
  5
20E
330
1F
100
AcDbEntity
  8
0
  6
Continuous
 62
     7
370
    15
100
AcDbLine
 10
304.6036004145
 20
59.1225973658
 30
0.0
 11
304.6036004145
 21
2109.1226353638
 31
0.0
  0
LINE
  5
20F
330
1F
100
AcDbEntity
  8
0
  6
Continuous
 62
     7
370
    15
100
AcDbLine
 10
-645.3963876646
 20
2109.1226353638
 30
0.0
 11
-645.3963876646
 21
59.1225973658
 31
0.0
  0
LINE
  5
210
330
1F
100
AcDbEntity
  8
0
  6
Continuous
 62
     7
370
    15
100
AcDbLine
 10
-645.3963876646
 20
59.1225973658
 30
0.0
 11
304.6036004145
 21
59.1225973658
 31
0.0
  0
LINE
  5
211
330
1F
100
AcDbEntity
  8
0
  6
Continuous
 62
     7
370
    15
100
AcDbLine
 10
304.6036004145
 20
2109.1226353638
 30
0.0
 11
-645.3963876646
 21
2109.1226353638
 31
0.0
  0
ARC
  5
212
330
1F
100
AcDbEntity
  8
0
  6
Continuous
 62
     7
370
    15
100
AcDbCircle
 10
205.1036123354
 20
2182.6226355128
 30
0.0
 40
29.00000000000015
100
AcDbArc
 50
301.1473899215
 51
238.8526100785
  0
ARC
  5
213
330
1F
100
AcDbEntity
  8
0
  6
Continuous
 62
     7
370
    15
100
AcDbCircle
 10
-545.8963876646
 20
2182.6226355128
 30
0.0
 40
29.00000000000032
100
AcDbArc
 50
301.1473899215
 51
238.8526100785
  0
CIRCLE
  5
214
330
1F
100
AcDbEntity
  8
0
  6
Continuous
 62
     7
370
    15
100
AcDbCircle
 10
205.1036123354
 20
2182.6226355128
 30
0.0
 40
15.00000000000001
  0
CIRCLE
  5
215
330
1F
100
AcDbEntity
  8
0
  6
Continuous
 62
     7
370
    15
100
AcDbCircle
 10
205.1036123354
 20
2182.6226355128
 30
0.0
 40
13.00000000000003
  0
CIRCLE
  5
216
330
1F
100
AcDbEntity
  8
0
  6
Continuous
 62
     7
370
    15
100
AcDbCircle
 10
211.8413031048
 20
2182.2151761948
 30
0.0
 40
1.249999999999923
  0
CIRCLE
  5
217
330
1F
100
AcDbEntity
  8
0
  6
Continuous
 62
     7
370
    15
100
AcDbCircle
 10
204.6961530174
 20
2175.8849447434
 30
0.0
 40
1.249999999999923
  0
CIRCLE
  5
218
330
1F
100
AcDbEntity
  8
0
  6
Continuous
 62
     7
370
    15
100
AcDbCircle
 10
198.365921566
 20
2183.0300948309
 30
0.0
 40
1.250000000000091
  0
CIRCLE
  5
219
330
1F
100
AcDbEntity
  8
0
  6
Continuous
 62
     7
370
    15
100
AcDbCircle
 10
205.5110716534
 20
2189.3603262822
 30
0.0
 40
1.24999999999995
  0
CIRCLE
  5
21A
330
1F
100
AcDbEntity
  8
0
  6
Continuous
 62
     7
370
    15
100
AcDbCircle
 10
-545.8963876646
 20
2182.6226355128
 30
0.0
 40
14.99999999999992
  0
CIRCLE
  5
21B
330
1F
100
AcDbEntity
  8
0
  6
Continuous
 62
     7
370
    15
100
AcDbCircle
 10
-545.8963876646
 20
2182.6226355128
 30
0.0
 40
12.99999999999995
  0
CIRCLE
  5
21C
330
1F
100
AcDbEntity
  8
0
  6
Continuous
 62
     7
370
    15
100
AcDbCircle
 10
-539.1586968952
 20
2182.2151761948
 30
0.0
 40
1.249999999999866
  0
CIRCLE
  5
21D
330
1F
100
AcDbEntity
  8
0
  6
Continuous
 62
     7
370
    15
100
AcDbCircle
 10
-546.3038469826
 20
2175.8849447434
 30
0.0
 40
1.250000000000093
  0
CIRCLE
  5
21E
330
1F
100
AcDbEntity
  8
0
  6
Continuous
 62
     7
370
    15
100
AcDbCircle
 10
-552.634078434
 20
2183.0300948309
 30
0.0
 40
1.249999999999921
  0
CIRCLE
  5
21F
330
1F
100
AcDbEntity
  8
0
  6
Continuous
 62
     7
370
    15
100
AcDbCircle
 10
-545.4889283466
 20
2189.3603262822
 30
0.0
 40
1.250000000000121
  0
LINE
  5
220
330
1F
100
AcDbEntity
  8
0
  6
Continuous
 62
     7
370
    15
100
AcDbLine
 10
220.1035856325
 20
55.1226488643
 30
0.0
 11
220.1035856325
 21
51.1227003627
 31
0.0
  0
LINE
  5
221
330
1F
100
AcDbEntity
  8
0
  6
Continuous
 62
     7
370
    15
100
AcDbLine
 10
220.1035856325
 20
55.1226488643
 30
0.0
 11
284.603619488
 21
55.1226488643
 31
0.0
  0
LINE
  5
222
330
1F
100
AcDbEntity
  8
0
  6
Continuous
 62
     7
370
    15
100
AcDbLine
 10
284.603619488
 20
55.1226488643
 30
0.0
 11
284.603619488
 21
51.1227003627
 31
0.0
  0
LINE
  5
223
330
1F
100
AcDbEntity
  8
0
  6
Continuous
 62
     7
370
    15
100
AcDbLine
 10
220.1035856325
 20
51.1227003627
 30
0.0
 11
284.603619488
 21
51.1227003627
 31
0.0
  0
CIRCLE
  5
224
330
1F
100
AcDbEntity
  8
0
  6
Continuous
 62
     7
370
    15
100
AcDbCircle
 10
-511.955451362
 20
2146.6171209029
 30
0.0
 40
1.250000000000036
  0
CIRCLE
  5
225
330
1F
100
AcDbEntity
  8
0
  6
Continuous
 62
     7
370
    15
100
AcDbCircle
 10
-512.9019022746
 20
2140.6816992102
 30
0.0
 40
1.250000000000002
  0
CIRCLE
  5
226
330
1F
100
AcDbEntity
  8
0
  6
Continuous
 62
     7
370
    15
100
AcDbCircle
 10
-517.8908730546
 20
2147.5635718155
 30
0.0
 40
1.249999999999701
  0
CIRCLE
  5
227
330
1F
100
AcDbEntity
  8
0
  6
Continuous
 62
     7
370
    15
100
AcDbCircle
 10
-515.3963876646
 20
2144.1226355128
 30
0.0
 40
6.449999999999926
  0
CIRCLE
  5
228
330
1F
100
AcDbEntity
  8
0
  6
Continuous
 62
     7
370
    15
100
AcDbCircle
 10
-518.8373239672
 20
2141.6281501228
 30
0.0
 40
1.250000000000136
  0
CIRCLE
  5
229
330
1F
100
AcDbEntity
  8
0
  6
Continuous
 62
     7
370
    15
100
AcDbCircle
 10
-515.3963876646
 20
2144.1226355128
 30
0.0
 40
7.450000000000268
  0
CIRCLE
  5
22A
330
1F
100
AcDbEntity
  8
0
  6
Continuous
 62
     7
370
    15
100
AcDbCircle
 10
258.044548638
 20
2146.6171209029
 30
0.0
 40
1.250000000000036
  0
CIRCLE
  5
22B
330
1F
100
AcDbEntity
  8
0
  6
Continuous
 62
     7
370
    15
100
AcDbCircle
 10
251.1626760328
 20
2141.6281501228
 30
0.0
 40
1.250000000000119
  0
CIRCLE
  5
22C
330
1F
100
AcDbEntity
  8
0
  6
Continuous
 62
     7
370
    15
100
AcDbCircle
 10
252.1091269454
 20
2147.5635718155
 30
0.0
 40
1.249999999999684
  0
CIRCLE
  5
22D
330
1F
100
AcDbEntity
  8
0
  6
Continuous
 62
     7
370
    15
100
AcDbCircle
 10
254.6036123354
 20
2144.1226355128
 30
0.0
 40
6.449999999999909
  0
CIRCLE
  5
22E
330
1F
100
AcDbEntity
  8
0
  6
Continuous
 62
     7
370
    15
100
AcDbCircle
 10
257.0980977254
 20
2140.6816992102
 30
0.0
 40
1.250000000000103
  0
CIRCLE
  5
22F
330
1F
100
AcDbEntity
  8
0
  6
Continuous
 62
     7
370
    15
100
AcDbCircle
 10
254.6036123354
 20
2144.1226355128
 30
0.0
 40
7.450000000000252
  0
CIRCLE
  5
230
330
1F
100
AcDbEntity
  8
0
  6
Continuous
 62
     7
370
    15
100
AcDbCircle
 10
1028.044548638
 20
2146.6171209029
 30
0.0
 40
1.250000000000002
  0
CIRCLE
  5
231
330
1F
100
AcDbEntity
  8
0
  6
Continuous
 62
     7
370
    15
100
AcDbCircle
 10
1021.1626760328
 20
2141.6281501228
 30
0.0
 40
1.249999999999936
  0
CIRCLE
  5
232
330
1F
100
AcDbEntity
  8
0
  6
Continuous
 62
     7
370
    15
100
AcDbCircle
 10
1024.6036123354
 20
2144.1226355128
 30
0.0
 40
6.44999999999986
  0
CIRCLE
  5
233
330
1F
100
AcDbEntity
  8
0
  6
Continuous
 62
     7
370
    15
100
AcDbCircle
 10
1022.1091269454
 20
2147.5635718155
 30
0.0
 40
1.249999999999567
  0
CIRCLE
  5
234
330
1F
100
AcDbEntity
  8
0
  6
Continuous
 62
     7
370
    15
100
AcDbCircle
 10
1027.0980977254
 20
2140.6816992102
 30
0.0
 40
1.250000000000136
  0
CIRCLE
  5
235
330
1F
100
AcDbEntity
  8
0
  6
Continuous
 62
     7
370
    15
100
AcDbCircle
 10
1024.6036123354
 20
2144.1226355128
 30
0.0
 40
7.450000000000236
  0
ARC
  5
236
330
1F
100
AcDbEntity
  8
0
  6
Continuous
 62
     7
370
    15
100
AcDbCircle
 10
254.6036123354
 20
2144.1226355128
 30
0.0
 40
14.99999999999942
100
AcDbArc
 50
56.4426902381
 51
123.5573097619
  0
ARC
  5
237
330
1F
100
AcDbEntity
  8
0
  6
Continuous
 62
     7
370
    15
100
AcDbCircle
 10
254.6036123354
 20
2144.1226355128
 30
0.0
 40
15.00000000000016
100
AcDbArc
 50
236.4426902381
 51
303.5573097619
  0
ARC
  5
238
330
1F
100
AcDbEntity
  8
0
  6
Continuous
 62
     7
370
    15
100
AcDbCircle
 10
254.6036123354
 20
2144.1226355128
 30
0.0
 40
30.0000000000003
100
AcDbArc
 50
204.6243183522
 51
335.3756816478
  0
ARC
  5
239
330
1F
100
AcDbEntity
  8
0
  6
Continuous
 62
     7
370
    15
100
AcDbCircle
 10
254.6036123354
 20
2144.1226355128
 30
0.0
 40
29.9999999999999
100
AcDbArc
 50
24.6243183522
 51
155.3756816478
  0
ARC
  5
23A
330
1F
100
AcDbEntity
  8
0
  6
Continuous
 62
     7
370
    15
100
AcDbCircle
 10
-515.3963876646
 20
2144.1226355128
 30
0.0
 40
14.9999999999994
100
AcDbArc
 50
56.4426902381
 51
123.5573097619
  0
ARC
  5
23B
330
1F
100
AcDbEntity
  8
0
  6
Continuous
 62
     7
370
    15
100
AcDbCircle
 10
-515.3963876646
 20
2144.1226355128
 30
0.0
 40
15.00000000000022
100
AcDbArc
 50
236.4426902381
 51
303.5573097619
  0
ARC
  5
23C
330
1F
100
AcDbEntity
  8
0
  6
Continuous
 62
     7
370
    15
100
AcDbCircle
 10
-515.3963876646
 20
2144.1226355128
 30
0.0
 40
30.00000000000027
100
AcDbArc
 50
238.8910774895
 51
335.3756816478
  0
ARC
  5
23D
330
1F
100
AcDbEntity
  8
0
  6
Continuous
 62
     7
370
    15
100
AcDbCircle
 10
-515.3963876646
 20
2144.1226355128
 30
0.0
 40
29.99999999999988
100
AcDbArc
 50
24.6243183522
 51
95.3833504544
  0
ARC
  5
23E
330
1F
100
AcDbEntity
  8
0
  6
Continuous
 62
     7
370
    15
100
AcDbCircle
 10
1024.6036123354
 20
2144.1226355128
 30
0.0
 40
14.99999999999943
100
AcDbArc
 50
56.4426902381
 51
123.5573097619
  0
ARC
  5
23F
330
1F
100
AcDbEntity
  8
0
  6
Continuous
 62
     7
370
    15
100
AcDbCircle
 10
1024.6036123354
 20
2144.1226355128
 30
0.0
 40
15.00000000000032
100
AcDbArc
 50
236.4426902381
 51
303.5573097619
  0
ARC
  5
240
330
1F
100
AcDbEntity
  8
0
  6
Continuous
 62
     7
370
    15
100
AcDbCircle
 10
1024.6036123354
 20
2144.1226355128
 30
0.0
 40
30.00000000000032
100
AcDbArc
 50
204.6243183522
 51
323.805629699
  0
ARC
  5
241
330
1F
100
AcDbEntity
  8
0
  6
Continuous
 62
     7
370
    15
100
AcDbCircle
 10
1024.6036123354
 20
2144.1226355128
 30
0.0
 40
29.99999999999993
100
AcDbArc
 50
24.6243183522
 51
155.3756816478
  0
LINE
  5
242
330
1F
100
AcDbEntity
  8
0
  6
Continuous
 62
     7
370
    15
100
AcDbLine
 10
1154.6035646517
 20
2155.6226355352
 30
0.0
 11
1154.6035646517
 21
2132.6226354905
 31
0.0
  0
LINE
  5
243
330
1F
100
AcDbEntity
  8
0
  6
Continuous
 62
     7
370
    15
100
AcDbLine
 10
1153.6036371309
 20
2131.6226353266
 30
0.0
 11
1153.6036371309
 21
2156.6226356991
 31
0.0
  0
LINE
  5
244
330
1F
100
AcDbEntity
  8
0
  6
Continuous
 62
     7
370
    15
100
AcDbLine
 10
-644.3963876171
 20
2156.6226356991
 30
0.0
 11
-644.3963876171
 21
2131.6226353266
 31
0.0
  0
LINE
  5
245
330
1F
100
AcDbEntity
  8
0
  6
Continuous
 62
     7
370
    15
100
AcDbLine
 10
-645.3963876646
 20
2132.6226354905
 30
0.0
 11
-645.3963876646
 21
2155.6226355352
 31
0.0
  0
SPLINE
  5
246
330
1F
100
AcDbEntity
  8
0
  6
Continuous
 62
     7
370
    15
100
AcDbSpline
210
0.0
220
0.0
230
1.0
 70
    11
 71
     3
 72
    28
 73
    24
 74
     0
 42
0.000000001
 43
0.00000001
 40
0.0
 40
0.0
 40
0.0
 40
0.0
 40
0.0475550301850669
 40
0.0949664510189636
 40
0.1460697163900528
 40
0.2034570431680759
 40
0.2467859353939659
 40
0.2901858654992773
 40
0.3330336495135737
 40
0.3834832669721916
 40
0.4410922613985856
 40
0.4950485909225705
 40
0.5415904448133922
 40
0.5869405364346626
 40
0.6370247893906293
 40
0.6937087216392707
 40
0.7381343514608029
 40
0.7826955834308672
 40
0.8249696748439628
 40
0.8737310651028067
 40
0.9306924613319164
 40
0.9860188297534704
 40
1.0
 40
1.0
 40
1.0
 40
1.0
 10
262.1535896379514
 20
2144.12263551282
 30
0.0
 10
262.0836330584207
 20
2143.349837138963
 30
0.0
 10
261.943931158168
 20
2141.806574131185
 30
0.0
 10
260.8709782355039
 20
2139.720872454645
 30
0.0
 10
259.216601709519
 20
2137.969599797909
 30
0.0
 10
257.0885384688798
 20
2136.85600884424
 30
0.0
 10
254.7630754316695
 20
2136.473546661492
 30
0.0
 10
252.6483257303784
 20
2136.731414726364
 30
0.0
 10
250.653171872735
 20
2137.567257712166
 30
0.0
 10
248.8371127432806
 20
2139.038502009157
 30
0.0
 10
247.4666564817825
 20
2141.208197052092
 30
0.0
 10
246.9263848980584
 20
2143.757897666731
 30
0.0
 10
247.2151975628033
 20
2146.141874797968
 30
0.0
 10
248.1306961907178
 20
2148.219509867125
 30
0.0
 10
249.6712869334136
 20
2150.014257628073
 30
0.0
 10
251.7056380808674
 20
2151.232970062549
 30
0.0
 10
254.014404418738
 20
2151.75575571045
 30
0.0
 10
256.1780104791341
 20
2151.606961197768
 30
0.0
 10
258.2081225224749
 20
2150.869887404225
 30
0.0
 10
260.0672983273746
 20
2149.52220274309
 30
0.0
 10
261.5429844876152
 20
2147.470560117102
 30
0.0
 10
262.115995503432
 20
2145.469828771993
 30
0.0
 10
262.147278938676
 20
2144.348780671713
 30
0.0
 10
262.1535896379514
 20
2144.12263551282
 30
0.0
  0
SPLINE
  5
247
330
1F
100
AcDbEntity
  8
0
  6
Continuous
 62
     7
370
    15
100
AcDbSpline
210
0.0
220
0.0
230
1.0
 70
    11
 71
     3
 72
    28
 73
    24
 74
     0
 42
0.000000001
 43
0.00000001
 40
0.0
 40
0.0
 40
0.0
 40
0.0
 40
0.0475549970180111
 40
0.0949663847850116
 40
0.1460688109628432
 40
0.2034571471337781
 40
0.2467860091401144
 40
0.290184693918015
 40
0.33303354834045
 40
0.3834822239379366
 40
0.4410918029062307
 40
0.4950480947986005
 40
0.5415899162290018
 40
0.5869404543536012
 40
0.6370239126682019
 40
0.6937078053828729
 40
0.7381345891887842
 40
0.7826957900798046
 40
0.8249698520090128
 40
0.8737312082594303
 40
0.9306925647610536
 40
0.9860188945954645
 40
1.0
 40
1.0
 40
1.0
 40
1.0
 10
1032.153570564465
 20
2144.12263551282
 30
0.0
 10
1032.083614916125
 20
2143.349836347049
 30
0.0
 10
1031.943914875441
 20
2141.806571757836
 30
0.0
 10
1030.870953580053
 20
2139.720893695142
 30
0.0
 10
1029.216639365781
 20
2137.96956272511
 30
0.0
 10
1027.088529091505
 20
2136.856024240973
 30
0.0
 10
1024.763075224211
 20
2136.473540289675
 30
0.0
 10
1022.648338022048
 20
2136.731437106722
 30
0.0
 10
1020.653163123075
 20
2137.567223219929
 30
0.0
 10
1018.837165544109
 20
2139.038541383988
 30
0.0
 10
1017.466619765525
 20
2141.208176419667
 30
0.0
 10
1016.926376406209
 20
2143.757897210427
 30
0.0
 10
1017.215157579401
 20
2146.141891387736
 30
0.0
 10
1018.130759352396
 20
2148.219476755713
 30
0.0
 10
1019.671254865956
 20
2150.014277858515
 30
0.0
 10
1021.705638945603
 20
2151.2329802302
 30
0.0
 10
1024.014425946101
 20
2151.755751687773
 30
0.0
 10
1026.178051232735
 20
2151.606962564167
 30
0.0
 10
1028.208161672664
 20
2150.869886927379
 30
0.0
 10
1030.067345560345
 20
2149.522203184556
 30
0.0
 10
1031.542995731389
 20
2147.470558760882
 30
0.0
 10
1032.116107858658
 20
2145.469832885478
 30
0.0
 10
1032.147281943791
 20
2144.348780770287
 30
0.0
 10
1032.153570564465
 20
2144.12263551282
 30
0.0
  0
SPLINE
  5
248
330
1F
100
AcDbEntity
  8
0
  6
Continuous
 62
     7
370
    15
100
AcDbSpline
210
0.0
220
0.0
230
1.0
 70
    11
 71
     3
 72
    96
 73
    92
 74
     0
 42
0.000000001
 43
0.00000001
 40
0.0
 40
0.0
 40
0.0
 40
0.0
 40
0.0312500000000037
 40
0.0312500000000037
 40
0.0625000000000073
 40
0.0625000000000073
 40
0.093750000000011
 40
0.093750000000011
 40
0.1250000000000147
 40
0.1250000000000147
 40
0.1406250000000159
 40
0.1406250000000159
 40
0.1562500000000172
 40
0.1562500000000172
 40
0.1875000000000184
 40
0.1875000000000184
 40
0.2187500000000196
 40
0.2187500000000196
 40
0.2343750000000202
 40
0.2343750000000202
 40
0.2500000000000208
 40
0.2500000000000208
 40
0.281250000000022
 40
0.281250000000022
 40
0.2968750000000218
 40
0.2968750000000218
 40
0.3125000000000216
 40
0.3125000000000216
 40
0.3281250000000214
 40
0.3281250000000214
 40
0.3437500000000211
 40
0.3437500000000211
 40
0.3750000000000207
 40
0.3750000000000207
 40
0.3906250000000202
 40
0.3906250000000202
 40
0.4062500000000197
 40
0.4062500000000197
 40
0.4375000000000187
 40
0.4375000000000187
 40
0.4531250000000182
 40
0.4531250000000182
 40
0.4687500000000177
 40
0.4687500000000177
 40
0.4843750000000172
 40
0.4843750000000172
 40
0.5000000000000167
 40
0.5000000000000167
 40
0.5312500000000157
 40
0.5312500000000157
 40
0.5468750000000152
 40
0.5468750000000152
 40
0.5625000000000149
 40
0.5625000000000149
 40
0.5781250000000144
 40
0.5781250000000144
 40
0.5937500000000141
 40
0.5937500000000141
 40
0.6250000000000128
 40
0.6250000000000128
 40
0.6562500000000114
 40
0.6562500000000114
 40
0.6875000000000101
 40
0.6875000000000101
 40
0.7031250000000094
 40
0.7031250000000094
 40
0.7187500000000089
 40
0.7187500000000089
 40
0.7343750000000082
 40
0.7343750000000082
 40
0.7500000000000077
 40
0.7500000000000077
 40
0.7812500000000063
 40
0.7812500000000063
 40
0.812500000000005
 40
0.812500000000005
 40
0.8437500000000037
 40
0.8437500000000037
 40
0.8750000000000023
 40
0.8750000000000023
 40
0.906250000000001
 40
0.906250000000001
 40
0.9218750000000008
 40
0.9218750000000008
 40
0.9375000000000007
 40
0.9375000000000007
 40
0.9687500000000003
 40
0.9687500000000003
 40
0.9843750000000001
 40
0.9843750000000001
 40
1.0
 40
1.0
 40
1.0
 40
1.0
 10
-507.8463876645997
 20
2144.122635512819
 30
0.0
 10
-507.8463876645998
 20
2143.610277068488
 30
0.0
 10
-507.897982645935
 20
2143.108736593613
 30
0.0
 10
-508.0979972199998
 20
2142.125746492249
 30
0.0
 10
-508.2491313237842
 20
2141.640003814556
 30
0.0
 10
-508.6337406263215
 20
2140.729504453426
 30
0.0
 10
-508.867243972995
 20
2140.300015114317
 30
0.0
 10
-509.4155470141335
 20
2139.488880105982
 30
0.0
 10
-509.723761184366
 20
2139.117250483582
 30
0.0
 10
-510.2330422435508
 20
2138.609026741631
 30
0.0
 10
-510.4108684037229
 20
2138.447661565857
 30
0.0
 10
-510.7834395834154
 20
2138.140876440475
 30
0.0
 10
-510.9784111634613
 20
2137.995473899622
 30
0.0
 10
-511.5782875538488
 20
2137.591394073422
 30
0.0
 10
-512.0015058873657
 20
2137.361284333277
 30
0.0
 10
-512.9010323282035
 20
2136.980206388242
 30
0.0
 10
-513.3833924932569
 20
2136.828722330635
 30
0.0
 10
-514.1191879570599
 20
2136.677236552768
 30
0.0
 10
-514.3673754535888
 20
2136.638823395234
 30
0.0
 10
-514.8699003119489
 20
2136.586779820914
 30
0.0
 10
-515.1257575276176
 20
2136.573161794188
 30
0.0
 10
-515.8923372967197
 20
2136.571628271412
 30
0.0
 10
-516.3937946496314
 20
2136.621955740008
 30
0.0
 10
-517.1327366892825
 20
2136.770715933451
 30
0.0
 10
-517.3781755727364
 20
2136.833105902643
 30
0.0
 10
-517.855016364289
 20
2136.979816029763
 30
0.0
 10
-518.087111430281
 20
2137.064114472157
 30
0.0
 10
-518.5397707232225
 20
2137.253730460961
 30
0.0
 10
-518.760332642731
 20
2137.359051239349
 30
0.0
 10
-519.1905999321585
 20
2137.590702314375
 30
0.0
 10
-519.4001793573235
 20
2137.717123253617
 30
0.0
 10
-520.0025182902173
 20
2138.120985610849
 30
0.0
 10
-520.3732831654858
 20
2138.424771847236
 30
0.0
 10
-520.8867265305288
 20
2138.93449143889
 30
0.0
 10
-521.0513244737606
 20
2139.114368051614
 30
0.0
 10
-521.3604198105314
 20
2139.486756541053
 30
0.0
 10
-521.5054799734819
 20
2139.67968125502
 30
0.0
 10
-521.9127556071403
 20
2140.279088409062
 30
0.0
 10
-522.1474309507302
 20
2140.705946111248
 30
0.0
 10
-522.4400722606779
 20
2141.392988962352
 30
0.0
 10
-522.5270998063289
 20
2141.629122533117
 30
0.0
 10
-522.6760719308311
 20
2142.104998376926
 30
0.0
 10
-522.7386727978227
 20
2142.346203403495
 30
0.0
 10
-522.8400112561116
 20
2142.835262278487
 30
0.0
 10
-522.8787507743282
 20
2143.083115415131
 30
0.0
 10
-522.9315139463972
 20
2143.585763408227
 30
0.0
 10
-522.9455042732445
 20
2143.842439590419
 30
0.0
 10
-522.9480311616795
 20
2144.608295678355
 30
0.0
 10
-522.8984327142772
 20
2145.110572371775
 30
0.0
 10
-522.7499522885618
 20
2145.852125932678
 30
0.0
 10
-522.6875225914584
 20
2146.098780727877
 30
0.0
 10
-522.5397899362248
 20
2146.579788828833
 30
0.0
 10
-522.4547638020824
 20
2146.813926575665
 30
0.0
 10
-522.2634092628292
 20
2147.270291093182
 30
0.0
 10
-522.157077955156
 20
2147.492515493479
 30
0.0
 10
-521.9233541815642
 20
2147.92549396079
 30
0.0
 10
-521.7952725731659
 20
2148.137167799602
 30
0.0
 10
-521.3858458315827
 20
2148.745154424055
 30
0.0
 10
-521.079095407363
 20
2149.116788090176
 30
0.0
 10
-520.3980363108593
 20
2149.79874668817
 30
0.0
 10
-520.0217225851983
 20
2150.10931093515
 30
0.0
 10
-519.2243469012599
 20
2150.648026981728
 30
0.0
 10
-518.8003767927446
 20
2150.879725740394
 30
0.0
 10
-518.1198700570467
 20
2151.168618144082
 30
0.0
 10
-517.8847153828181
 20
2151.255146189288
 30
0.0
 10
-517.4094252369333
 20
2151.403580720385
 30
0.0
 10
-517.1680602741021
 20
2151.466095914781
 30
0.0
 10
-516.6774671387279
 20
2151.567369886282
 30
0.0
 10
-516.4282395831168
 20
2151.606131961955
 30
0.0
 10
-515.9212986889344
 20
2151.658675978641
 30
0.0
 10
-515.6644171215074
 20
2151.672141500226
 30
0.0
 10
-514.9032194367953
 20
2151.673582928456
 30
0.0
 10
-514.4010942170066
 20
2151.62389633866
 30
0.0
 10
-513.4071482125429
 20
2151.423488163469
 30
0.0
 10
-512.9305404165754
 20
2151.27557021698
 30
0.0
 10
-512.0225176074701
 20
2150.894775379227
 30
0.0
 10
-511.588224842499
 20
2150.659737420644
 30
0.0
 10
-510.7862479330012
 20
2150.121170091203
 30
0.0
 10
-510.4133044177455
 20
2149.8153562674
 30
0.0
 10
-509.7252539305859
 20
2149.130272720689
 30
0.0
 10
-509.4182398935278
 20
2148.759298208531
 30
0.0
 10
-509.0108023557374
 20
2148.158152604207
 30
0.0
 10
-508.8839229646393
 20
2147.950267611724
 30
0.0
 10
-508.6486658550272
 20
2147.518399687995
 30
0.0
 10
-508.5397725753305
 20
2147.292980242891
 30
0.0
 10
-508.2493172246787
 20
2146.606364339877
 30
0.0
 10
-508.1015378975915
 20
2146.132380629185
 30
0.0
 10
-507.9502606365915
 20
2145.395641570055
 30
0.0
 10
-507.9116554152953
 20
2145.145741493817
 30
0.0
 10
-507.8595637633347
 20
2144.636686262698
 30
0.0
 10
-507.8463876645998
 20
2144.378814734985
 30
0.0
 10
-507.8463876645997
 20
2144.122635512819
 30
0.0
  0
LINE
  5
249
330
1F
100
AcDbEntity
  8
0
  6
Continuous
 62
     8
370
    15
100
AcDbLine
 10
1058.9036583025
 20
2136.0726352178
 30
0.0
 11
1058.9036583025
 21
2124.1726349436
 31
0.0
  0
LINE
  5
24A
330
1F
100
AcDbEntity
  8
0
  6
Continuous
 62
     8
370
    15
100
AcDbLine
 10
-565.6963870805
 20
2124.1726349436
 30
0.0
 11
-565.6963870805
 21
2136.0726352178
 31
0.0
  0
LINE
  5
24B
330
1F
100
AcDbEntity
  8
0
  6
Continuous
 62
     8
370
    15
100
AcDbLine
 10
1050.1190065462
 20
2131.8737599395
 30
0.0
 11
1050.1190065462
 21
2131.9362945251
 31
0.0
  0
LINE
  5
24C
330
1F
100
AcDbEntity
  8
0
  6
Continuous
 62
     8
370
    15
100
AcDbLine
 10
1050.1190065462
 20
2126.3089771711
 30
0.0
 11
1050.1190065462
 21
2131.8737599395
 31
0.0
  0
LINE
  5
24D
330
1F
100
AcDbEntity
  8
0
  6
Continuous
 62
     8
370
    15
100
AcDbLine
 10
1052.9266237337
 20
2131.3180779435
 30
0.0
 11
1052.9266237337
 21
2126.9271928214
 31
0.0
  0
LINE
  5
24E
330
1F
100
AcDbEntity
  8
0
  6
Continuous
 62
     8
370
    15
100
AcDbLine
 10
1043.5288786013
 20
2131.4420258023
 30
0.0
 11
1043.5288786013
 21
2126.8032449626
 31
0.0
  0
LINE
  5
24F
330
1F
100
AcDbEntity
  8
0
  6
Continuous
 62
     8
370
    15
100
AcDbLine
 10
1055.6035875399
 20
2130.6226351626
 30
0.0
 11
1055.6035875399
 21
2127.6226356022
 31
0.0
  0
LINE
  5
250
330
1F
100
AcDbEntity
  8
0
  6
Continuous
 62
     8
370
    15
100
AcDbLine
 10
233.8797091562
 20
59.1225973658
 30
0.0
 11
233.8629006464
 21
55.1226488643
 31
0.0
  0
LINE
  5
251
330
1F
100
AcDbEntity
  8
0
  6
Continuous
 62
     8
370
    15
100
AcDbLine
 10
260.3275417406
 20
59.1225973658
 30
0.0
 11
260.3443502504
 21
55.1226488643
 31
0.0
  0
LINE
  5
252
330
1F
100
AcDbEntity
  8
0
  6
Continuous
 62
     7
370
    15
100
AcDbLine
 10
-1141.5079476865
 20
2127.7623265378
 30
0.0
 11
-1141.5182574274
 21
2127.7726362787
 31
0.0
  0
LINE
  5
253
330
1F
100
AcDbEntity
  8
0
  6
Continuous
 62
     7
370
    15
100
AcDbLine
 10
-1144.0682558896
 20
2119.1226351403
 30
0.0
 11
-1143.8682562294
 21
2119.3226348005
 31
0.0
  0
LINE
  5
254
330
1F
100
AcDbEntity
  8
0
  6
Continuous
 62
     7
370
    15
100
AcDbLine
 10
-1143.8682562294
 20
2158.9226355173
 30
0.0
 11
-1144.0682558896
 21
2159.1226351775
 31
0.0
  0
LINE
  5
255
330
1F
100
AcDbEntity
  8
0
  6
Continuous
 62
     7
370
    15
100
AcDbLine
 10
-1146.8682585838
 20
2159.1226351775
 30
0.0
 11
-1148.8682589116
 21
2157.122635781
 31
0.0
  0
LINE
  5
256
330
1F
100
AcDbEntity
  8
0
  6
Continuous
 62
     7
370
    15
100
AcDbLine
 10
-1148.8682589116
 20
2121.1226354681
 30
0.0
 11
-1146.8682585838
 21
2119.1226351403
 31
0.0
  0
LINE
  5
257
330
1F
100
AcDbEntity
  8
0
  6
Continuous
 62
     7
370
    15
100
AcDbLine
 10
-1144.0682558896
 20
2159.1226351775
 30
0.0
 11
-1146.8682585838
 21
2159.1226351775
 31
0.0
  0
LINE
  5
258
330
1F
100
AcDbEntity
  8
0
  6
Continuous
 62
     7
370
    15
100
AcDbLine
 10
-1146.8682585838
 20
2119.1226351403
 30
0.0
 11
-1144.0682558896
 21
2119.1226351403
 31
0.0
  0
LINE
  5
259
330
1F
100
AcDbEntity
  8
0
  6
Continuous
 62
     7
370
    15
100
AcDbLine
 10
-1096.6682572471
 20
2159.1226351775
 30
0.0
 11
-1143.5682586016
 21
2159.1226351775
 31
0.0
  0
LINE
  5
25A
330
1F
100
AcDbEntity
  8
0
  6
Continuous
 62
     7
370
    15
100
AcDbLine
 10
-1143.5682586016
 20
2119.1226351403
 30
0.0
 11
-1096.6682572471
 21
2119.1226351403
 31
0.0
  0
LINE
  5
25B
330
1F
100
AcDbEntity
  8
0
  6
Continuous
 62
     7
370
    15
100
AcDbLine
 10
-1096.6682572471
 20
2119.1226351403
 30
0.0
 11
-1096.3682577567
 21
2119.4226346307
 31
0.0
  0
LINE
  5
25C
330
1F
100
AcDbEntity
  8
0
  6
Continuous
 62
     7
370
    15
100
AcDbLine
 10
-1096.3682577567
 20
2158.8226356872
 30
0.0
 11
-1096.6682572471
 21
2159.1226351775
 31
0.0
  0
LINE
  5
25D
330
1F
100
AcDbEntity
  8
0
  6
Continuous
 62
     7
370
    15
100
AcDbLine
 10
-1143.5682586016
 20
2159.1226351775
 30
0.0
 11
-1143.8682562294
 21
2158.8226356872
 31
0.0
  0
LINE
  5
25E
330
1F
100
AcDbEntity
  8
0
  6
Continuous
 62
     7
370
    15
100
AcDbLine
 10
-1143.8682562294
 20
2119.4226346307
 30
0.0
 11
-1143.5682586016
 21
2119.1226351403
 31
0.0
  0
LINE
  5
25F
330
1F
100
AcDbEntity
  8
0
  6
Continuous
 62
     7
370
    15
100
AcDbLine
 10
-1136.368257794
 20
2109.1226353638
 30
0.0
 11
-1134.8682566168
 21
2109.1226353638
 31
0.0
  0
LINE
  5
260
330
1F
100
AcDbEntity
  8
0
  6
Continuous
 62
     7
370
    15
100
AcDbLine
 10
-1138.3682581218
 20
2111.1226356916
 30
0.0
 11
-1136.368257794
 21
2109.1226353638
 31
0.0
  0
LINE
  5
261
330
1F
100
AcDbEntity
  8
0
  6
Continuous
 62
     7
370
    15
100
AcDbLine
 10
-1128.3682583453
 20
2197.6226359002
 30
0.0
 11
-1134.3682574662
 21
2197.6226359002
 31
0.0
  0
LINE
  5
262
330
1F
100
AcDbEntity
  8
0
  6
Continuous
 62
     7
370
    15
100
AcDbLine
 10
-1100.868257563
 20
2211.622638195
 30
0.0
 11
-1102.3682578089
 21
2211.622638195
 31
0.0
  0
LINE
  5
263
330
1F
100
AcDbEntity
  8
0
  6
Continuous
 62
     7
370
    15
100
AcDbLine
 10
-1120.368257034
 20
2211.622638195
 30
0.0
 11
-1121.8682572799
 21
2211.622638195
 31
0.0
  0
LINE
  5
264
330
1F
100
AcDbEntity
  8
0
  6
Continuous
 62
     7
370
    15
100
AcDbLine
 10
-1119.3999320822
 20
2211.622638195
 30
0.0
 11
-1120.368257034
 21
2211.622638195
 31
0.0
  0
ARC
  5
265
330
1F
100
AcDbEntity
  8
0
  6
Continuous
 62
     7
370
    15
100
AcDbCircle
 10
-1111.3943088447
 20
2221.2226355128
 30
0.0
 40
12.49999999999971
100
AcDbArc
 50
230.1746287392
 51
309.8253712608
  0
LINE
  5
266
330
1F
100
AcDbEntity
  8
0
  6
Continuous
 62
     7
370
    15
100
AcDbLine
 10
-1103.2442188444
 20
2153.6226352073
 30
0.0
 11
-1103.1750048133
 21
2153.6226352073
 31
0.0
  0
LINE
  5
267
330
1F
100
AcDbEntity
  8
0
  6
Continuous
 62
     7
370
    15
100
AcDbLine
 10
-1102.3682578089
 20
2211.622638195
 30
0.0
 11
-1103.3886856022
 21
2211.622638195
 31
0.0
  0
LINE
  5
268
330
1F
100
AcDbEntity
  8
0
  6
Continuous
 62
     7
370
    15
100
AcDbLine
 10
-1136.368257794
 20
2167.6226347082
 30
0.0
 11
-1134.3682574662
 21
2167.6226347082
 31
0.0
  0
LINE
  5
269
330
1F
100
AcDbEntity
  8
0
  6
Continuous
 62
     7
370
    15
100
AcDbLine
 10
-1134.3682574662
 20
2197.6226359002
 30
0.0
 11
-1136.368257794
 21
2197.6226359002
 31
0.0
  0
LINE
  5
26A
330
1F
100
AcDbEntity
  8
0
  6
Continuous
 62
     7
370
    15
100
AcDbLine
 10
-1136.368257794
 20
2197.6226359002
 30
0.0
 11
-1138.3682581218
 21
2195.6226355724
 31
0.0
  0
LINE
  5
26B
330
1F
100
AcDbEntity
  8
0
  6
Continuous
 62
     7
370
    15
100
AcDbLine
 10
-1138.3682581218
 20
2169.622635036
 30
0.0
 11
-1136.368257794
 21
2167.6226347082
 31
0.0
  0
LINE
  5
26C
330
1F
100
AcDbEntity
  8
0
  6
Continuous
 62
     7
370
    15
100
AcDbLine
 10
-1099.3682573172
 20
2167.6226347082
 30
0.0
 11
-1097.3682569893
 21
2169.622635036
 31
0.0
  0
LINE
  5
26D
330
1F
100
AcDbEntity
  8
0
  6
Continuous
 62
     7
370
    15
100
AcDbLine
 10
-1097.3682569893
 20
2195.6226355724
 30
0.0
 11
-1099.3682573172
 21
2197.6226359002
 31
0.0
  0
LINE
  5
26E
330
1F
100
AcDbEntity
  8
0
  6
Continuous
 62
     7
370
    15
100
AcDbLine
 10
-1099.3682573172
 20
2197.6226359002
 30
0.0
 11
-1100.3682574811
 21
2197.6226359002
 31
0.0
  0
LINE
  5
26F
330
1F
100
AcDbEntity
  8
0
  6
Continuous
 62
     7
370
    15
100
AcDbLine
 10
-1100.3682574811
 20
2167.6226347082
 30
0.0
 11
-1099.3682573172
 21
2167.6226347082
 31
0.0
  0
LINE
  5
270
330
1F
100
AcDbEntity
  8
0
  6
Continuous
 62
     7
370
    15
100
AcDbLine
 10
-1100.3682574811
 20
2192.3726364367
 30
0.0
 11
-1100.868257563
 21
2192.3726364367
 31
0.0
  0
LINE
  5
271
330
1F
100
AcDbEntity
  8
0
  6
Continuous
 62
     7
370
    15
100
AcDbLine
 10
-1100.868257563
 20
2172.8726360344
 30
0.0
 11
-1100.3682574811
 21
2172.8726360344
 31
0.0
  0
LINE
  5
272
330
1F
100
AcDbEntity
  8
0
  6
Continuous
 62
     7
370
    15
100
AcDbLine
 10
-1122.6682577836
 20
2167.6226347082
 30
0.0
 11
-1122.3682573619
 21
2167.9226360612
 31
0.0
  0
LINE
  5
273
330
1F
100
AcDbEntity
  8
0
  6
Continuous
 62
     7
370
    15
100
AcDbLine
 10
-1122.3682573619
 20
2197.3226345472
 30
0.0
 11
-1122.6682577836
 21
2197.6226359002
 31
0.0
  0
LINE
  5
274
330
1F
100
AcDbEntity
  8
0
  6
Continuous
 62
     7
370
    15
100
AcDbLine
 10
-1128.0682569923
 20
2167.6226347082
 30
0.0
 11
-1122.6682577836
 21
2167.6226347082
 31
0.0
  0
LINE
  5
275
330
1F
100
AcDbEntity
  8
0
  6
Continuous
 62
     7
370
    15
100
AcDbLine
 10
-1122.6682577836
 20
2197.6226359002
 30
0.0
 11
-1128.0682569923
 21
2197.6226359002
 31
0.0
  0
LINE
  5
276
330
1F
100
AcDbEntity
  8
0
  6
Continuous
 62
     7
370
    15
100
AcDbLine
 10
-1128.0682569923
 20
2197.6226359002
 30
0.0
 11
-1128.3682583453
 21
2197.3226345472
 31
0.0
  0
LINE
  5
277
330
1F
100
AcDbEntity
  8
0
  6
Continuous
 62
     7
370
    15
100
AcDbLine
 10
-1128.3682583453
 20
2167.9226360612
 30
0.0
 11
-1128.0682569923
 21
2167.6226347082
 31
0.0
  0
LINE
  5
278
330
1F
100
AcDbEntity
  8
0
  6
Continuous
 62
     7
370
    15
100
AcDbLine
 10
-1122.3682573619
 20
2172.8726360344
 30
0.0
 11
-1121.8682572799
 21
2172.8726360344
 31
0.0
  0
LINE
  5
279
330
1F
100
AcDbEntity
  8
0
  6
Continuous
 62
     7
370
    15
100
AcDbLine
 10
-1121.8682572799
 20
2192.3726364367
 30
0.0
 11
-1122.3682573619
 21
2192.3726364367
 31
0.0
  0
LINE
  5
27A
330
1F
100
AcDbEntity
  8
0
  6
Continuous
 62
     7
370
    15
100
AcDbLine
 10
-1112.2800881713
 20
55.1226488643
 30
0.0
 11
-1112.5593691686
 21
71.1226812892
 31
0.0
  0
LINE
  5
27B
330
1F
100
AcDbEntity
  8
0
  6
Continuous
 62
     7
370
    15
100
AcDbLine
 10
-1117.1771454247
 20
71.1226812892
 30
0.0
 11
-1117.4564267131
 21
55.1226488643
 31
0.0
  0
LINE
  5
27C
330
1F
100
AcDbEntity
  8
0
  6
Continuous
 62
     7
370
    15
100
AcDbLine
 10
-1121.4055631863
 20
2151.5726354301
 30
0.0
 11
-1121.4637214871
 21
2151.5726354301
 31
0.0
  0
LINE
  5
27D
330
1F
100
AcDbEntity
  8
0
  6
Continuous
 62
     7
370
    15
100
AcDbLine
 10
-1121.5103220748
 20
2136.6726355955
 30
0.0
 11
-1121.4055631863
 21
2136.6726355955
 31
0.0
  0
LINE
  5
27E
330
1F
100
AcDbEntity
  8
0
  6
Continuous
 62
     7
370
    15
100
AcDbLine
 10
-1080.8682570787
 20
2151.6226353452
 30
0.0
 11
-1096.3682577567
 21
2151.6226353452
 31
0.0
  0
LINE
  5
27F
330
1F
100
AcDbEntity
  8
0
  6
Continuous
 62
     7
370
    15
100
AcDbLine
 10
-1096.3682577567
 20
2136.6226356805
 30
0.0
 11
-1080.8682570787
 21
2136.6226356805
 31
0.0
  0
LINE
  5
280
330
1F
100
AcDbEntity
  8
0
  6
Continuous
 62
     7
370
    15
100
AcDbLine
 10
-1076.8682582857
 20
2174.1226348423
 30
0.0
 11
-1078.8682586136
 21
2174.1226348423
 31
0.0
  0
LINE
  5
281
330
1F
100
AcDbEntity
  8
0
  6
Continuous
 62
     7
370
    15
100
AcDbLine
 10
-1078.8682586136
 20
2114.1226361834
 30
0.0
 11
-1076.8682582857
 21
2114.1226361834
 31
0.0
  0
LINE
  5
282
330
1F
100
AcDbEntity
  8
0
  6
Continuous
 62
     7
370
    15
100
AcDbLine
 10
-1078.8682586136
 20
2174.1226348423
 30
0.0
 11
-1080.8682570787
 21
2159.1226351775
 31
0.0
  0
LINE
  5
283
330
1F
100
AcDbEntity
  8
0
  6
Continuous
 62
     7
370
    15
100
AcDbLine
 10
-1080.8682570787
 20
2129.1226358481
 30
0.0
 11
-1078.8682586136
 21
2114.1226361834
 31
0.0
  0
CIRCLE
  5
284
330
1F
100
AcDbEntity
  8
0
  6
Continuous
 62
     7
370
    15
100
AcDbCircle
 10
-1133.3682574215
 20
2130.1226355128
 30
0.0
 40
8.475000000000119
  0
CIRCLE
  5
285
330
1F
100
AcDbEntity
  8
0
  6
Continuous
 62
     7
370
    15
100
AcDbCircle
 10
-1133.3682574215
 20
2130.1226355128
 30
0.0
 40
8.175000000000223
  0
CIRCLE
  5
286
330
1F
100
AcDbEntity
  8
0
  6
Continuous
 62
     7
370
    15
100
AcDbCircle
 10
-1133.3682574215
 20
2130.1226355128
 30
0.0
 40
0.9999999999995461
  0
LINE
  5
287
330
1F
100
AcDbEntity
  8
0
  6
Continuous
 62
     7
370
    15
100
AcDbLine
 10
-1144.0682558896
 20
2147.7235260282
 30
0.0
 11
-1144.0682558896
 21
2159.1226351775
 31
0.0
  0
LINE
  5
288
330
1F
100
AcDbEntity
  8
0
  6
Continuous
 62
     7
370
    15
100
AcDbLine
 10
-1144.0682558896
 20
2119.1226351403
 30
0.0
 11
-1144.0682558896
 21
2147.7235260282
 31
0.0
  0
LINE
  5
289
330
1F
100
AcDbEntity
  8
0
  6
Continuous
 62
     7
370
    15
100
AcDbLine
 10
-1143.8682562294
 20
2147.6375172243
 30
0.0
 11
-1143.8682562294
 21
2119.3226348005
 31
0.0
  0
LINE
  5
28A
330
1F
100
AcDbEntity
  8
0
  6
Continuous
 62
     7
370
    15
100
AcDbLine
 10
-1143.8682562294
 20
2158.9226355173
 30
0.0
 11
-1143.8682562294
 21
2147.6375172243
 31
0.0
  0
LINE
  5
28B
330
1F
100
AcDbEntity
  8
0
  6
Continuous
 62
     7
370
    15
100
AcDbLine
 10
-1148.8682589116
 20
2146.8634370577
 30
0.0
 11
-1148.8682589116
 21
2157.122635781
 31
0.0
  0
LINE
  5
28C
330
1F
100
AcDbEntity
  8
0
  6
Continuous
 62
     7
370
    15
100
AcDbLine
 10
-1148.8682589116
 20
2121.1226354681
 30
0.0
 11
-1148.8682589116
 21
2146.8634370577
 31
0.0
  0
LINE
  5
28D
330
1F
100
AcDbEntity
  8
0
  6
Continuous
 62
     7
370
    15
100
AcDbLine
 10
-1146.8682585838
 20
2147.7235260282
 30
0.0
 11
-1146.8682585838
 21
2119.1226351403
 31
0.0
  0
LINE
  5
28E
330
1F
100
AcDbEntity
  8
0
  6
Continuous
 62
     7
370
    15
100
AcDbLine
 10
-1146.8682585838
 20
2159.1226351775
 30
0.0
 11
-1146.8682585838
 21
2147.7235260282
 31
0.0
  0
SPLINE
  5
28F
330
1F
100
AcDbEntity
  8
0
  6
Continuous
 62
     7
370
    15
100
AcDbSpline
210
0.0
220
0.0
230
1.0
 70
    11
 71
     3
 72
    26
 73
    22
 74
     0
 42
0.000000001
 43
0.00000001
 40
0.0
 40
0.0
 40
0.0
 40
0.0
 40
0.0751735888182783
 40
0.1425847938970904
 40
0.1925179115116345
 40
0.2339924740437661
 40
0.2756157035342821
 40
0.3140688297031102
 40
0.355484135283556
 40
0.4049595230312792
 40
0.4648671900250987
 40
0.5321666941956121
 40
0.5983300643960999
 40
0.6571680455917538
 40
0.7090973521224465
 40
0.7570957842861881
 40
0.8035162939417003
 40
0.849928704754954
 40
0.8977196078347786
 40
0.948526424675709
 40
1.0
 40
1.0
 40
1.0
 40
1.0
 10
-1116.118257268732
 20
2129.122635848096
 30
0.0
 10
-1116.169638766737
 20
2128.721363453558
 30
0.0
 10
-1116.267096137314
 20
2127.960253832865
 30
0.0
 10
-1116.912662985799
 20
2127.110836384463
 30
0.0
 10
-1117.673244378503
 20
2126.600468153459
 30
0.0
 10
-1118.458921764058
 20
2126.365910736633
 30
0.0
 10
-1119.231419471367
 20
2126.362066304736
 30
0.0
 10
-1119.953148265968
 20
2126.561867564496
 30
0.0
 10
-1120.604444485666
 20
2126.943714520587
 30
0.0
 10
-1121.180088275632
 20
2127.547590451109
 30
0.0
 10
-1121.587211625422
 20
2128.404740295391
 30
0.0
 10
-1121.671891357392
 20
2129.454314641566
 30
0.0
 10
-1121.330936538493
 20
2130.501192228784
 30
0.0
 10
-1120.634840870364
 20
2131.310742818654
 30
0.0
 10
-1119.7622824667
 20
2131.779331227289
 30
0.0
 10
-1118.847273470698
 20
2131.92052732754
 30
0.0
 10
-1117.970967949849
 20
2131.770246895675
 30
0.0
 10
-1117.197066859344
 20
2131.363176247374
 30
0.0
 10
-1116.589539200415
 20
2130.738589332792
 30
0.0
 10
-1116.190760621824
 20
2129.959163521009
 30
0.0
 10
-1116.142529857385
 20
2129.40268761447
 30
0.0
 10
-1116.118257268732
 20
2129.122635848096
 30
0.0
  0
LINE
  5
290
330
1F
100
AcDbEntity
  8
0
  6
Continuous
 62
     7
370
    15
100
AcDbLine
 10
-1096.6682572471
 20
2139.1226356246
 30
0.0
 11
-1096.6682572471
 21
2159.1226351775
 31
0.0
  0
LINE
  5
291
330
1F
100
AcDbEntity
  8
0
  6
Continuous
 62
     7
370
    15
100
AcDbLine
 10
-1096.6682572471
 20
2119.1226351403
 30
0.0
 11
-1096.6682572471
 21
2139.1226356246
 31
0.0
  0
LINE
  5
292
330
1F
100
AcDbEntity
  8
0
  6
Continuous
 62
     7
370
    15
100
AcDbLine
 10
-1143.5682586016
 20
2139.1226356246
 30
0.0
 11
-1143.5682586016
 21
2119.1226351403
 31
0.0
  0
LINE
  5
293
330
1F
100
AcDbEntity
  8
0
  6
Continuous
 62
     7
370
    15
100
AcDbLine
 10
-1143.5682586016
 20
2159.1226351775
 30
0.0
 11
-1143.5682586016
 21
2139.1226356246
 31
0.0
  0
SPLINE
  5
294
330
1F
100
AcDbEntity
  8
0
  6
Continuous
 62
     7
370
    15
100
AcDbSpline
210
0.0
220
0.0
230
1.0
 70
    11
 71
     3
 72
    30
 73
    26
 74
     0
 42
0.000000001
 43
0.00000001
 40
0.0
 40
0.0
 40
0.0
 40
0.0
 40
0.0308939012576173
 40
0.0618246147448337
 40
0.12305046348774
 40
0.1604573009395783
 40
0.1978024027750661
 40
0.2302284718017041
 40
0.2630174002511102
 40
0.2910113630284472
 40
0.3237651472080649
 40
0.3801496531717113
 40
0.4196764643027855
 40
0.4591876188273945
 40
0.5212140791100256
 40
0.5725877095271166
 40
0.6241655673421735
 40
0.6710345732263316
 40
0.7175560923526864
 40
0.7654164165506688
 40
0.8138864112744849
 40
0.8623879814835541
 40
0.9104157661296811
 40
0.9570796046779307
 40
1.0
 40
1.0
 40
1.0
 40
1.0
 10
-1124.868257771647
 20
2130.122635080686
 30
0.0
 10
-1124.898657405112
 20
2129.588739868237
 30
0.0
 10
-1124.959492895319
 20
2128.520313270103
 30
0.0
 10
-1125.537250535115
 20
2126.583673377936
 30
0.0
 10
-1126.581546399947
 20
2124.83860304498
 30
0.0
 10
-1128.074097826257
 20
2123.395550376542
 30
0.0
 10
-1129.507132031486
 20
2122.487319628493
 30
0.0
 10
-1131.136244597605
 20
2121.85692157171
 30
0.0
 10
-1132.920830989784
 20
2121.568259835592
 30
0.0
 10
-1134.791111342614
 20
2121.680767127065
 30
0.0
 10
-1136.832854346944
 20
2122.246227683166
 30
0.0
 10
-1138.593792221077
 20
2123.299019364761
 30
0.0
 10
-1140.05545105794
 20
2124.770602698017
 30
0.0
 10
-1141.232571484649
 20
2126.61062883094
 30
0.0
 10
-1141.969841695313
 20
2129.041850981092
 30
0.0
 10
-1141.820127758349
 20
2132.021395316144
 30
0.0
 10
-1140.718016120591
 20
2134.709743051685
 30
0.0
 10
-1138.800009153388
 20
2136.854602665199
 30
0.0
 10
-1136.351062313257
 20
2138.24612331309
 30
0.0
 10
-1133.549270056838
 20
2138.780951697149
 30
0.0
 10
-1130.687935671511
 20
2138.359943819824
 30
0.0
 10
-1128.120127002341
 20
2137.013504735122
 30
0.0
 10
-1126.186388848045
 20
2134.935565054166
 30
0.0
 10
-1125.049155328154
 20
2132.495184109372
 30
0.0
 10
-1124.926853419855
 20
2130.891142134763
 30
0.0
 10
-1124.868257771647
 20
2130.122635080686
 30
0.0
  0
SPLINE
  5
295
330
1F
100
AcDbEntity
  8
0
  6
Continuous
 62
     7
370
    15
100
AcDbSpline
210
0.0
220
0.0
230
1.0
 70
     8
 71
     3
 72
    10
 73
     6
 74
     0
 42
0.000000001
 43
0.00000001
 40
0.0
 40
0.0
 40
0.0
 40
0.0
 40
0.4392645012227352
 40
0.8783122440733729
 40
1.0
 40
1.0
 40
1.0
 40
1.0
 10
-1098.768257405078
 20
2144.12263551282
 30
0.0
 10
-1098.880566794693
 20
2142.917789716024
 30
0.0
 10
-1099.105130154011
 20
2140.508692662653
 30
0.0
 10
-1100.230614743573
 20
2137.789603246375
 30
0.0
 10
-1101.307279470009
 20
2136.659754959021
 30
0.0
 10
-1101.540931369578
 20
2136.414561453482
 30
0.0
  0
LWPOLYLINE
  5
296
330
1F
100
AcDbEntity
  8
0
  6
Continuous
 62
     7
370
    15
100
AcDbPolyline
 90
       25
 70
   128
 43
0.0
 10
-1116.9781227218
 20
2133.012792594
 10
-1118.6551664578
 20
2133.8434839018
 10
-1120.2712439554
 20
2135.208097785
 10
-1121.6427552136
 20
2136.8291657746
 10
-1122.7211271035
 20
2138.6614227995
 10
-1123.4800646635
 20
2140.6492898569
 10
-1123.8627302083
 20
2142.5063009702
 10
-1123.9658453124
 20
2144.3691591595
 10
-1123.4337779315
 20
2147.7535060004
 10
-1121.9490597578
 20
2150.9641721241
 10
-1120.3873100313
 20
2152.9221195124
 10
-1118.4983713175
 20
2154.511161647
 10
-1116.9626692863
 20
2155.4133124046
 10
-1115.2447723871
 20
2156.1114904799
 10
-1112.9796940223
 20
2156.6191655912
 10
-1110.9087727819
 20
2156.7142545574
 10
-1108.8881053584
 20
2156.4761312075
 10
-1106.0201231012
 20
2155.5312923484
 10
-1103.9223353001
 20
2154.2889676385
 10
-1102.1301335277
 20
2152.6910108842
 10
-1100.6046262192
 20
2150.6711547591
 10
-1099.4772313716
 20
2148.2895887785
 10
-1098.9548907237
 20
2146.2736670256
 10
-1098.7682574051
 20
2144.1226355128
 10
-1098.7682574051
 20
2144.1226355128
  0
LINE
  5
297
330
1F
100
AcDbEntity
  8
0
  6
Continuous
 62
     7
370
    15
100
AcDbLine
 10
-1096.3682577567
 20
2139.1226356246
 30
0.0
 11
-1096.3682577567
 21
2119.4226346307
 31
0.0
  0
LINE
  5
298
330
1F
100
AcDbEntity
  8
0
  6
Continuous
 62
     7
370
    15
100
AcDbLine
 10
-1096.3682577567
 20
2158.8226356872
 30
0.0
 11
-1096.3682577567
 21
2139.1226356246
 31
0.0
  0
CIRCLE
  5
299
330
1F
100
AcDbEntity
  8
0
  6
Continuous
 62
     7
370
    15
100
AcDbCircle
 10
-1118.8682574215
 20
2129.1226355128
 30
0.0
 40
2.524999999999864
  0
CIRCLE
  5
29A
330
1F
100
AcDbEntity
  8
0
  6
Continuous
 62
     7
370
    15
100
AcDbCircle
 10
-1118.8682574215
 20
2129.1226355128
 30
0.0
 40
2.099999999999909
  0
LINE
  5
29B
330
1F
100
AcDbEntity
  8
0
  6
Continuous
 62
     7
370
    15
100
AcDbLine
 10
-1136.368257794
 20
2119.1226351403
 30
0.0
 11
-1136.368257794
 21
2109.1226353638
 31
0.0
  0
LINE
  5
29C
330
1F
100
AcDbEntity
  8
0
  6
Continuous
 62
     7
370
    15
100
AcDbLine
 10
-1138.3682581218
 20
2111.1226356916
 30
0.0
 11
-1138.3682581218
 21
2119.1226351403
 31
0.0
  0
LINE
  5
29D
330
1F
100
AcDbEntity
  8
0
  6
Continuous
 62
     7
370
    15
100
AcDbLine
 10
-1098.3682571532
 20
2109.1226353638
 30
0.0
 11
-1098.3682571532
 21
2119.1226351403
 31
0.0
  0
LINE
  5
29E
330
1F
100
AcDbEntity
  8
0
  6
Continuous
 62
     7
370
    15
100
AcDbLine
 10
-1128.3682583453
 20
2109.1226353638
 30
0.0
 11
-1128.3682583453
 21
2119.1226351403
 31
0.0
  0
LINE
  5
29F
330
1F
100
AcDbEntity
  8
0
  6
Continuous
 62
     7
370
    15
100
AcDbLine
 10
-1134.3682574662
 20
2182.6226353042
 30
0.0
 11
-1134.3682574662
 21
2159.1226351775
 31
0.0
  0
LINE
  5
2A0
330
1F
100
AcDbEntity
  8
0
  6
Continuous
 62
     7
370
    15
100
AcDbLine
 10
-1134.3682574662
 20
2119.1226351403
 30
0.0
 11
-1134.3682574662
 21
2109.1226353638
 31
0.0
  0
LINE
  5
2A1
330
1F
100
AcDbEntity
  8
0
  6
Continuous
 62
     7
370
    15
100
AcDbLine
 10
-1128.3682583453
 20
2182.6226353042
 30
0.0
 11
-1134.3682574662
 21
2182.6226353042
 31
0.0
  0
LINE
  5
2A2
330
1F
100
AcDbEntity
  8
0
  6
Continuous
 62
     7
370
    15
100
AcDbLine
 10
-1129.3682566466
 20
2109.1226353638
 30
0.0
 11
-1128.3682583453
 21
2110.1226336651
 31
0.0
  0
LINE
  5
2A3
330
1F
100
AcDbEntity
  8
0
  6
Continuous
 62
     7
370
    15
100
AcDbLine
 10
-1128.3682583453
 20
2182.6226353042
 30
0.0
 11
-1128.3682583453
 21
2159.1226351775
 31
0.0
  0
LINE
  5
2A4
330
1F
100
AcDbEntity
  8
0
  6
Continuous
 62
     7
370
    15
100
AcDbLine
 10
-1128.3682583453
 20
2119.1226351403
 30
0.0
 11
-1128.3682583453
 21
2110.1226336651
 31
0.0
  0
LINE
  5
2A5
330
1F
100
AcDbEntity
  8
0
  6
Continuous
 62
     7
370
    15
100
AcDbLine
 10
-1134.3682574662
 20
2197.6226359002
 30
0.0
 11
-1134.3682574662
 21
2182.6226353042
 31
0.0
  0
LINE
  5
2A6
330
1F
100
AcDbEntity
  8
0
  6
Continuous
 62
     7
370
    15
100
AcDbLine
 10
-1128.3682583453
 20
2197.6226359002
 30
0.0
 11
-1128.3682583453
 21
2182.6226353042
 31
0.0
  0
LINE
  5
2A7
330
1F
100
AcDbEntity
  8
0
  6
Continuous
 62
     7
370
    15
100
AcDbLine
 10
-1134.8682566168
 20
59.1225973658
 30
0.0
 11
-1134.8682566168
 21
2109.1226353638
 31
0.0
  0
LINE
  5
2A8
330
1F
100
AcDbEntity
  8
0
  6
Continuous
 62
     7
370
    15
100
AcDbLine
 10
-1134.8682566168
 20
2109.1226353638
 30
0.0
 11
-1094.8682575109
 21
2109.1226353638
 31
0.0
  0
LINE
  5
2A9
330
1F
100
AcDbEntity
  8
0
  6
Continuous
 62
     7
370
    15
100
AcDbLine
 10
-1094.8682575109
 20
59.1225973658
 30
0.0
 11
-1094.8682575109
 21
2109.1226353638
 31
0.0
  0
LINE
  5
2AA
330
1F
100
AcDbEntity
  8
0
  6
Continuous
 62
     7
370
    15
100
AcDbLine
 10
-1111.3682574215
 20
59.1225973658
 30
0.0
 11
-1094.8682575109
 21
59.1225973658
 31
0.0
  0
LINE
  5
2AB
330
1F
100
AcDbEntity
  8
0
  6
Continuous
 62
     7
370
    15
100
AcDbLine
 10
-1111.3682574215
 20
79.1225782924
 30
0.0
 11
-1111.3682574215
 21
59.1225973658
 31
0.0
  0
LINE
  5
2AC
330
1F
100
AcDbEntity
  8
0
  6
Continuous
 62
     7
370
    15
100
AcDbLine
 10
-1111.3682574215
 20
79.1225782924
 30
0.0
 11
-1118.3682576375
 21
79.1225782924
 31
0.0
  0
LINE
  5
2AD
330
1F
100
AcDbEntity
  8
0
  6
Continuous
 62
     7
370
    15
100
AcDbLine
 10
-1118.3682576375
 20
79.1225782924
 30
0.0
 11
-1118.3682576375
 21
59.1225973658
 31
0.0
  0
LINE
  5
2AE
330
1F
100
AcDbEntity
  8
0
  6
Continuous
 62
     7
370
    15
100
AcDbLine
 10
-1134.8682566168
 20
59.1225973658
 30
0.0
 11
-1118.3682576375
 21
59.1225973658
 31
0.0
  0
LINE
  5
2AF
330
1F
100
AcDbEntity
  8
0
  6
Continuous
 62
     7
370
    15
100
AcDbLine
 10
-1100.868257563
 20
2159.1226351775
 30
0.0
 11
-1100.868257563
 21
2211.622638195
 31
0.0
  0
LINE
  5
2B0
330
1F
100
AcDbEntity
  8
0
  6
Continuous
 62
     7
370
    15
100
AcDbLine
 10
-1102.3682578089
 20
2159.1226351775
 30
0.0
 11
-1102.3682578089
 21
2211.622638195
 31
0.0
  0
LINE
  5
2B1
330
1F
100
AcDbEntity
  8
0
  6
Continuous
 62
     7
370
    15
100
AcDbLine
 10
-1121.8682572799
 20
2211.622638195
 30
0.0
 11
-1121.8682572799
 21
2159.1226351775
 31
0.0
  0
LINE
  5
2B2
330
1F
100
AcDbEntity
  8
0
  6
Continuous
 62
     7
370
    15
100
AcDbLine
 10
-1120.368257034
 20
2211.622638195
 30
0.0
 11
-1120.368257034
 21
2159.1226351775
 31
0.0
  0
LINE
  5
2B3
330
1F
100
AcDbEntity
  8
0
  6
Continuous
 62
     7
370
    15
100
AcDbLine
 10
-1119.3999320822
 20
2159.1226351775
 30
0.0
 11
-1119.3999320822
 21
2211.622638195
 31
0.0
  0
LINE
  5
2B4
330
1F
100
AcDbEntity
  8
0
  6
Continuous
 62
     7
370
    15
100
AcDbLine
 10
-1103.3886856022
 20
2211.622638195
 30
0.0
 11
-1103.3886856022
 21
2159.1226351775
 31
0.0
  0
LINE
  5
2B5
330
1F
100
AcDbEntity
  8
0
  6
Continuous
 62
     7
370
    15
100
AcDbLine
 10
-1136.368257794
 20
2197.6226359002
 30
0.0
 11
-1136.368257794
 21
2167.6226347082
 31
0.0
  0
LINE
  5
2B6
330
1F
100
AcDbEntity
  8
0
  6
Continuous
 62
     7
370
    15
100
AcDbLine
 10
-1138.3682581218
 20
2169.622635036
 30
0.0
 11
-1138.3682581218
 21
2195.6226355724
 31
0.0
  0
LINE
  5
2B7
330
1F
100
AcDbEntity
  8
0
  6
Continuous
 62
     7
370
    15
100
AcDbLine
 10
-1097.3682569893
 20
2182.6226353042
 30
0.0
 11
-1097.3682569893
 21
2169.622635036
 31
0.0
  0
LINE
  5
2B8
330
1F
100
AcDbEntity
  8
0
  6
Continuous
 62
     7
370
    15
100
AcDbLine
 10
-1097.3682569893
 20
2195.6226355724
 30
0.0
 11
-1097.3682569893
 21
2182.6226353042
 31
0.0
  0
LINE
  5
2B9
330
1F
100
AcDbEntity
  8
0
  6
Continuous
 62
     7
370
    15
100
AcDbLine
 10
-1099.3682573172
 20
2182.6226353042
 30
0.0
 11
-1099.3682573172
 21
2197.6226359002
 31
0.0
  0
LINE
  5
2BA
330
1F
100
AcDbEntity
  8
0
  6
Continuous
 62
     7
370
    15
100
AcDbLine
 10
-1099.3682573172
 20
2167.6226347082
 30
0.0
 11
-1099.3682573172
 21
2182.6226353042
 31
0.0
  0
LINE
  5
2BB
330
1F
100
AcDbEntity
  8
0
  6
Continuous
 62
     7
370
    15
100
AcDbLine
 10
-1100.3682574811
 20
2197.6226359002
 30
0.0
 11
-1100.3682574811
 21
2167.6226347082
 31
0.0
  0
LINE
  5
2BC
330
1F
100
AcDbEntity
  8
0
  6
Continuous
 62
     7
370
    15
100
AcDbLine
 10
-1122.3682573619
 20
2186.3174564533
 30
0.0
 11
-1122.3682573619
 21
2167.9226360612
 31
0.0
  0
LINE
  5
2BD
330
1F
100
AcDbEntity
  8
0
  6
Continuous
 62
     7
370
    15
100
AcDbLine
 10
-1122.3682573619
 20
2197.3226345472
 30
0.0
 11
-1122.3682573619
 21
2186.3174564533
 31
0.0
  0
LINE
  5
2BE
330
1F
100
AcDbEntity
  8
0
  6
Continuous
 62
     7
370
    15
100
AcDbLine
 10
-1122.6682577836
 20
2186.3928600542
 30
0.0
 11
-1122.6682577836
 21
2197.6226359002
 31
0.0
  0
LINE
  5
2BF
330
1F
100
AcDbEntity
  8
0
  6
Continuous
 62
     7
370
    15
100
AcDbLine
 10
-1122.6682577836
 20
2167.6226347082
 30
0.0
 11
-1122.6682577836
 21
2186.3928600542
 31
0.0
  0
LINE
  5
2C0
330
1F
100
AcDbEntity
  8
0
  6
Continuous
 62
     7
370
    15
100
AcDbLine
 10
-1128.0682569923
 20
2186.3928600542
 30
0.0
 11
-1128.0682569923
 21
2167.6226347082
 31
0.0
  0
LINE
  5
2C1
330
1F
100
AcDbEntity
  8
0
  6
Continuous
 62
     7
370
    15
100
AcDbLine
 10
-1128.0682569923
 20
2197.6226359002
 30
0.0
 11
-1128.0682569923
 21
2186.3928600542
 31
0.0
  0
LINE
  5
2C2
330
1F
100
AcDbEntity
  8
0
  6
Continuous
 62
     7
370
    15
100
AcDbLine
 10
-1128.868257496
 20
55.1226488643
 30
0.0
 11
-1128.868257496
 21
51.1227003627
 31
0.0
  0
LINE
  5
2C3
330
1F
100
AcDbEntity
  8
0
  6
Continuous
 62
     7
370
    15
100
AcDbLine
 10
-1100.868257563
 20
55.1226488643
 30
0.0
 11
-1100.868257563
 21
51.1227003627
 31
0.0
  0
LINE
  5
2C4
330
1F
100
AcDbEntity
  8
0
  6
Continuous
 62
     7
370
    15
100
AcDbLine
 10
-1128.868257496
 20
51.1227003627
 30
0.0
 11
-1100.868257563
 21
51.1227003627
 31
0.0
  0
LINE
  5
2C5
330
1F
100
AcDbEntity
  8
0
  6
Continuous
 62
     7
370
    15
100
AcDbLine
 10
-1128.868257496
 20
55.1226488643
 30
0.0
 11
-1100.868257563
 21
55.1226488643
 31
0.0
  0
LINE
  5
2C6
330
1F
100
AcDbEntity
  8
0
  6
Continuous
 62
     7
370
    15
100
AcDbLine
 10
-1115.5677795032
 20
71.1226812892
 30
0.0
 11
-1115.8388469922
 21
55.1226488643
 31
0.0
  0
LINE
  5
2C7
330
1F
100
AcDbEntity
  8
0
  6
Continuous
 62
     7
370
    15
100
AcDbLine
 10
-1115.5677795032
 20
71.1226812892
 30
0.0
 11
-1114.1687350901
 21
71.1226812892
 31
0.0
  0
LINE
  5
2C8
330
1F
100
AcDbEntity
  8
0
  6
Continuous
 62
     7
370
    15
100
AcDbLine
 10
-1114.1687350901
 20
71.1226812892
 30
0.0
 11
-1113.8976680668
 21
55.1226488643
 31
0.0
  0
LINE
  5
2C9
330
1F
100
AcDbEntity
  8
0
  6
Continuous
 62
     7
370
    15
100
AcDbLine
 10
-1114.1687350901
 20
71.1226812892
 30
0.0
 11
-1112.5593691686
 21
71.1226812892
 31
0.0
  0
LINE
  5
2CA
330
1F
100
AcDbEntity
  8
0
  6
Continuous
 62
     7
370
    15
100
AcDbLine
 10
-1117.1771454247
 20
71.1226812892
 30
0.0
 11
-1115.5677795032
 21
71.1226812892
 31
0.0
  0
LINE
  5
2CB
330
1F
100
AcDbEntity
  8
0
  6
Continuous
 62
     7
370
    15
100
AcDbLine
 10
-1076.8682582857
 20
2144.1213076324
 30
0.0
 11
-1076.8682582857
 21
2174.1226348423
 31
0.0
  0
LINE
  5
2CC
330
1F
100
AcDbEntity
  8
0
  6
Continuous
 62
     7
370
    15
100
AcDbLine
 10
-1076.8682582857
 20
2114.1226361834
 30
0.0
 11
-1076.8682582857
 21
2144.1213076324
 31
0.0
  0
LINE
  5
2CD
330
1F
100
AcDbEntity
  8
0
  6
Continuous
 62
     7
370
    15
100
AcDbLine
 10
-1078.8682586136
 20
2144.1213076324
 30
0.0
 11
-1078.8682586136
 21
2114.1226361834
 31
0.0
  0
LINE
  5
2CE
330
1F
100
AcDbEntity
  8
0
  6
Continuous
 62
     7
370
    15
100
AcDbLine
 10
-1078.8682586136
 20
2174.1226348423
 30
0.0
 11
-1078.8682586136
 21
2144.1213076324
 31
0.0
  0
LINE
  5
2CF
330
1F
100
AcDbEntity
  8
0
  6
Continuous
 62
     7
370
    15
100
AcDbLine
 10
-1080.8682570787
 20
2144.1219715726
 30
0.0
 11
-1080.8682570787
 21
2159.1226351775
 31
0.0
  0
LINE
  5
2D0
330
1F
100
AcDbEntity
  8
0
  6
Continuous
 62
     7
370
    15
100
AcDbLine
 10
-1080.8682570787
 20
2129.1226358481
 30
0.0
 11
-1080.8682570787
 21
2144.1219715726
 31
0.0
  0
CIRCLE
  5
2D1
330
1F
100
AcDbEntity
  8
0
  6
Continuous
 62
     7
370
    15
100
AcDbCircle
 10
-1111.3682574215
 20
2144.1226355128
 30
0.0
 40
11.50000000000023
  0
CIRCLE
  5
2D2
330
1F
100
AcDbEntity
  8
0
  6
Continuous
 62
     7
370
    15
100
AcDbCircle
 10
-1111.3682574215
 20
2144.1226355128
 30
0.0
 40
12.5
  0
LINE
  5
2D3
330
1F
100
AcDbEntity
  8
0
  6
Continuous
 62
     7
370
    15
100
AcDbLine
 10
-579.69638565
 20
-183.8383087836
 30
0.0
 11
-574.5963887256
 21
-183.8383087836
 31
0.0
  0
LINE
  5
2D4
330
1F
100
AcDbEntity
  8
0
  6
Continuous
 62
     7
370
    15
100
AcDbLine
 10
-574.5963887256
 20
-165.6383098982
 30
0.0
 11
-579.69638565
 21
-165.6383098982
 31
0.0
  0
LINE
  5
2D5
330
1F
100
AcDbEntity
  8
0
  6
Continuous
 62
     7
370
    15
100
AcDbLine
 10
-579.69638565
 20
-165.6383098982
 30
0.0
 11
-579.8963890355
 21
-165.8383095584
 31
0.0
  0
LINE
  5
2D6
330
1F
100
AcDbEntity
  8
0
  6
Continuous
 62
     7
370
    15
100
AcDbLine
 10
-579.8963890355
 20
-183.6383091233
 30
0.0
 11
-579.69638565
 21
-183.8383087836
 31
0.0
  0
LINE
  5
2D7
330
1F
100
AcDbEntity
  8
0
  6
Continuous
 62
     7
370
    15
100
AcDbLine
 10
-574.5963887256
 20
-183.8383087836
 30
0.0
 11
-574.39638534
 21
-183.6383091233
 31
0.0
  0
LINE
  5
2D8
330
1F
100
AcDbEntity
  8
0
  6
Continuous
 62
     7
370
    15
100
AcDbLine
 10
-574.39638534
 20
-165.8383095584
 30
0.0
 11
-574.5963887256
 21
-165.6383098982
 31
0.0
  0
LINE
  5
2D9
330
1F
100
AcDbEntity
  8
0
  6
Continuous
 62
     7
370
    15
100
AcDbLine
 10
1088.9036296923
 20
-165.6383098982
 30
0.0
 11
1083.8036178667
 21
-165.6383098982
 31
0.0
  0
LINE
  5
2DA
330
1F
100
AcDbEntity
  8
0
  6
Continuous
 62
     7
370
    15
100
AcDbLine
 10
1083.8036178667
 20
-183.8383087836
 30
0.0
 11
1088.9036296923
 21
-183.8383087836
 31
0.0
  0
LINE
  5
2DB
330
1F
100
AcDbEntity
  8
0
  6
Continuous
 62
     7
370
    15
100
AcDbLine
 10
1088.9036296923
 20
-183.8383087836
 30
0.0
 11
1089.1036628801
 21
-183.6383091233
 31
0.0
  0
LINE
  5
2DC
330
1F
100
AcDbEntity
  8
0
  6
Continuous
 62
     7
370
    15
100
AcDbLine
 10
1089.1036628801
 20
-165.8383095584
 30
0.0
 11
1088.9036296923
 21
-165.6383098982
 31
0.0
  0
LINE
  5
2DD
330
1F
100
AcDbEntity
  8
0
  6
Continuous
 62
     7
370
    15
100
AcDbLine
 10
1083.8036178667
 20
-165.6383098982
 30
0.0
 11
1083.6035846788
 21
-165.8383095584
 31
0.0
  0
LINE
  5
2DE
330
1F
100
AcDbEntity
  8
0
  6
Continuous
 62
     7
370
    15
100
AcDbLine
 10
1083.6035846788
 20
-183.6383091233
 30
0.0
 11
1083.8036178667
 21
-183.8383087836
 31
0.0
  0
LINE
  5
2DF
330
1F
100
AcDbEntity
  8
0
  6
Continuous
 62
     7
370
    15
100
AcDbLine
 10
1083.6035846788
 20
-168.7883092038
 30
0.0
 11
1058.9036583025
 21
-168.7883092038
 31
0.0
  0
LINE
  5
2E0
330
1F
100
AcDbEntity
  8
0
  6
Continuous
 62
     7
370
    15
100
AcDbLine
 10
1058.9036583025
 20
-180.688309478
 30
0.0
 11
1083.6035846788
 21
-180.688309478
 31
0.0
  0
ARC
  5
2E1
330
1F
100
AcDbEntity
  8
0
  6
Continuous
 62
     7
370
    15
100
AcDbCircle
 10
1058.9036123354
 20
-180.3883094601
 30
0.0
 40
0.2999999999999829
100
AcDbArc
 50
180.0
 51
270.0
  0
ARC
  5
2E2
330
1F
100
AcDbEntity
  8
0
  6
Continuous
 62
     7
370
    15
100
AcDbCircle
 10
1058.9036123354
 20
-169.0883094601
 30
0.0
 40
0.2999999999999829
100
AcDbArc
 50
90.0
 51
180.0
  0
ARC
  5
2E3
330
1F
100
AcDbEntity
  8
0
  6
Continuous
 62
     7
370
    15
100
AcDbCircle
 10
-565.6963876646
 20
-169.0883094601
 30
0.0
 40
0.2999999999999829
100
AcDbArc
 50
0.0
 51
90.0
  0
ARC
  5
2E4
330
1F
100
AcDbEntity
  8
0
  6
Continuous
 62
     7
370
    15
100
AcDbCircle
 10
-565.6963876646
 20
-180.3883094601
 30
0.0
 40
0.2999999999999829
100
AcDbArc
 50
270.0
 51
0.0
  0
LINE
  5
2E5
330
1F
100
AcDbEntity
  8
0
  6
Continuous
 62
     7
370
    15
100
AcDbLine
 10
-574.39638534
 20
-180.688309478
 30
0.0
 11
-565.6963870805
 21
-180.688309478
 31
0.0
  0
LINE
  5
2E6
330
1F
100
AcDbEntity
  8
0
  6
Continuous
 62
     7
370
    15
100
AcDbLine
 10
-565.6963870805
 20
-168.7883092038
 30
0.0
 11
-574.39638534
 21
-168.7883092038
 31
0.0
  0
LINE
  5
2E7
330
1F
100
AcDbEntity
  8
0
  6
Continuous
 62
     7
370
    15
100
AcDbLine
 10
1056.6036342699
 20
-179.7383101605
 30
0.0
 11
1058.6036085207
 21
-179.7383101605
 31
0.0
  0
LINE
  5
2E8
330
1F
100
AcDbEntity
  8
0
  6
Continuous
 62
     7
370
    15
100
AcDbLine
 10
1058.6036085207
 20
-169.738310384
 30
0.0
 11
1056.6036342699
 21
-169.738310384
 31
0.0
  0
LINE
  5
2E9
330
1F
100
AcDbEntity
  8
0
  6
Continuous
 62
     7
370
    15
100
AcDbLine
 10
-563.3963853996
 20
-169.738310384
 30
0.0
 11
-565.3963894527
 21
-169.738310384
 31
0.0
  0
LINE
  5
2EA
330
1F
100
AcDbEntity
  8
0
  6
Continuous
 62
     7
370
    15
100
AcDbLine
 10
-565.3963894527
 20
-179.7383101605
 30
0.0
 11
-563.3963853996
 21
-179.7383101605
 31
0.0
  0
LINE
  5
2EB
330
1F
100
AcDbEntity
  8
0
  6
Continuous
 62
     7
370
    15
100
AcDbLine
 10
-619.8963881414
 20
-166.2633093021
 30
0.0
 11
-620.0963878017
 21
-166.2633093021
 31
0.0
  0
LINE
  5
2EC
330
1F
100
AcDbEntity
  8
0
  6
Continuous
 62
     7
370
    15
100
AcDbLine
 10
-620.0963878017
 20
-183.2133093796
 30
0.0
 11
-619.8963881414
 21
-183.2133093796
 31
0.0
  0
LINE
  5
2ED
330
1F
100
AcDbEntity
  8
0
  6
Continuous
 62
     7
370
    15
100
AcDbLine
 10
-620.0963878017
 20
-166.2633093021
 30
0.0
 11
-620.3963872921
 21
-166.5633097238
 31
0.0
  0
LINE
  5
2EE
330
1F
100
AcDbEntity
  8
0
  6
Continuous
 62
     7
370
    15
100
AcDbLine
 10
-620.3963872921
 20
-182.9133098893
 30
0.0
 11
-620.0963878017
 21
-183.2133093796
 31
0.0
  0
LINE
  5
2EF
330
1F
100
AcDbEntity
  8
0
  6
Continuous
 62
     7
370
    15
100
AcDbLine
 10
1129.1036247332
 20
-183.2133093796
 30
0.0
 11
1129.303657921
 21
-183.2133093796
 31
0.0
  0
LINE
  5
2F0
330
1F
100
AcDbEntity
  8
0
  6
Continuous
 62
     7
370
    15
100
AcDbLine
 10
1129.303657921
 20
-166.2633093021
 30
0.0
 11
1129.1036247332
 21
-166.2633093021
 31
0.0
  0
LINE
  5
2F1
330
1F
100
AcDbEntity
  8
0
  6
Continuous
 62
     7
370
    15
100
AcDbLine
 10
1129.303657921
 20
-183.2133093796
 30
0.0
 11
1129.6035884935
 21
-182.9133098893
 31
0.0
  0
LINE
  5
2F2
330
1F
100
AcDbEntity
  8
0
  6
Continuous
 62
     7
370
    15
100
AcDbLine
 10
1129.6035884935
 20
-166.5633097238
 30
0.0
 11
1129.303657921
 21
-166.2633093021
 31
0.0
  0
LINE
  5
2F3
330
1F
100
AcDbEntity
  8
0
  6
Continuous
 62
     7
370
    15
100
AcDbLine
 10
-579.8963890355
 20
-185.4383079283
 30
0.0
 11
-580.0963849705
 21
-185.238308268
 31
0.0
  0
LINE
  5
2F4
330
1F
100
AcDbEntity
  8
0
  6
Continuous
 62
     7
370
    15
100
AcDbLine
 10
-619.6963884812
 20
-185.238308268
 30
0.0
 11
-619.8963881414
 21
-185.4383079283
 31
0.0
  0
LINE
  5
2F5
330
1F
100
AcDbEntity
  8
0
  6
Continuous
 62
     7
370
    15
100
AcDbLine
 10
-619.8963881414
 20
-185.4383079283
 30
0.0
 11
-619.8963881414
 21
-188.2383106224
 31
0.0
  0
LINE
  5
2F6
330
1F
100
AcDbEntity
  8
0
  6
Continuous
 62
     7
370
    15
100
AcDbLine
 10
-579.8963890355
 20
-188.2383106224
 30
0.0
 11
-579.8963890355
 21
-185.4383079283
 31
0.0
  0
LINE
  5
2F7
330
1F
100
AcDbEntity
  8
0
  6
Continuous
 62
     7
370
    15
100
AcDbLine
 10
-619.8963881414
 20
-188.2383106224
 30
0.0
 11
-617.8963878136
 21
-190.2383109502
 31
0.0
  0
LINE
  5
2F8
330
1F
100
AcDbEntity
  8
0
  6
Continuous
 62
     7
370
    15
100
AcDbLine
 10
-581.896385638
 20
-190.2383109502
 30
0.0
 11
-579.8963890355
 21
-188.2383106224
 31
0.0
  0
LINE
  5
2F9
330
1F
100
AcDbEntity
  8
0
  6
Continuous
 62
     7
370
    15
100
AcDbLine
 10
1129.1036247332
 20
-185.4383079283
 30
0.0
 11
1128.9035915453
 21
-185.238308268
 31
0.0
  0
LINE
  5
2FA
330
1F
100
AcDbEntity
  8
0
  6
Continuous
 62
     7
370
    15
100
AcDbLine
 10
1089.3035768587
 20
-185.238308268
 30
0.0
 11
1089.1036628801
 21
-185.4383079283
 31
0.0
  0
LINE
  5
2FB
330
1F
100
AcDbEntity
  8
0
  6
Continuous
 62
     7
370
    15
100
AcDbLine
 10
1089.1036628801
 20
-185.4383079283
 30
0.0
 11
1089.1036628801
 21
-188.2383106224
 31
0.0
  0
LINE
  5
2FC
330
1F
100
AcDbEntity
  8
0
  6
Continuous
 62
     7
370
    15
100
AcDbLine
 10
1129.1036247332
 20
-188.2383106224
 30
0.0
 11
1129.1036247332
 21
-185.4383079283
 31
0.0
  0
LINE
  5
2FD
330
1F
100
AcDbEntity
  8
0
  6
Continuous
 62
     7
370
    15
100
AcDbLine
 10
1089.1036628801
 20
-188.2383106224
 30
0.0
 11
1091.1036371309
 21
-190.2383109502
 31
0.0
  0
LINE
  5
2FE
330
1F
100
AcDbEntity
  8
0
  6
Continuous
 62
     7
370
    15
100
AcDbLine
 10
1127.1036504824
 20
-190.2383109502
 30
0.0
 11
1129.1036247332
 21
-188.2383106224
 31
0.0
  0
LINE
  5
2FF
330
1F
100
AcDbEntity
  8
0
  6
Continuous
 62
     7
370
    15
100
AcDbLine
 10
-579.8963890355
 20
-138.0383092858
 30
0.0
 11
-580.1963866632
 21
-137.7383097954
 31
0.0
  0
LINE
  5
300
330
1F
100
AcDbEntity
  8
0
  6
Continuous
 62
     7
370
    15
100
AcDbLine
 10
-619.5963867884
 20
-137.7383097954
 30
0.0
 11
-619.8963881414
 21
-138.0383092858
 31
0.0
  0
LINE
  5
301
330
1F
100
AcDbEntity
  8
0
  6
Continuous
 62
     7
370
    15
100
AcDbLine
 10
-619.8963881414
 20
-165.2383096464
 30
0.0
 11
-619.8963881414
 21
-184.9383106403
 31
0.0
  0
LINE
  5
302
330
1F
100
AcDbEntity
  8
0
  6
Continuous
 62
     7
370
    15
100
AcDbLine
 10
-619.8963881414
 20
-138.0383092858
 30
0.0
 11
-619.8963881414
 21
-140.2383092738
 31
0.0
  0
LINE
  5
303
330
1F
100
AcDbEntity
  8
0
  6
Continuous
 62
     7
370
    15
100
AcDbLine
 10
-579.8963890355
 20
-140.2383092738
 30
0.0
 11
-579.8963890355
 21
-138.0383092858
 31
0.0
  0
LINE
  5
304
330
1F
100
AcDbEntity
  8
0
  6
Continuous
 62
     7
370
    15
100
AcDbLine
 10
-579.8963890355
 20
-184.9383106403
 30
0.0
 11
-579.8963890355
 21
-165.2383096464
 31
0.0
  0
LINE
  5
305
330
1F
100
AcDbEntity
  8
0
  6
Continuous
 62
     7
370
    15
100
AcDbLine
 10
-619.8963881414
 20
-184.9383106403
 30
0.0
 11
-619.5963867884
 21
-185.238308268
 31
0.0
  0
LINE
  5
306
330
1F
100
AcDbEntity
  8
0
  6
Continuous
 62
     7
370
    15
100
AcDbLine
 10
-580.1963866632
 20
-185.238308268
 30
0.0
 11
-579.8963890355
 21
-184.9383106403
 31
0.0
  0
LINE
  5
307
330
1F
100
AcDbEntity
  8
0
  6
Continuous
 62
     7
370
    15
100
AcDbLine
 10
1089.1036628801
 20
-165.2383096464
 30
0.0
 11
1089.1036628801
 21
-184.9383106403
 31
0.0
  0
LINE
  5
308
330
1F
100
AcDbEntity
  8
0
  6
Continuous
 62
     7
370
    15
100
AcDbLine
 10
1089.1036628801
 20
-138.0383092858
 30
0.0
 11
1089.1036628801
 21
-140.2383092738
 31
0.0
  0
LINE
  5
309
330
1F
100
AcDbEntity
  8
0
  6
Continuous
 62
     7
370
    15
100
AcDbLine
 10
1129.1036247332
 20
-140.2383092738
 30
0.0
 11
1129.1036247332
 21
-138.0383092858
 31
0.0
  0
LINE
  5
30A
330
1F
100
AcDbEntity
  8
0
  6
Continuous
 62
     7
370
    15
100
AcDbLine
 10
1129.1036247332
 20
-184.9383106403
 30
0.0
 11
1129.1036247332
 21
-165.2383096464
 31
0.0
  0
LINE
  5
30B
330
1F
100
AcDbEntity
  8
0
  6
Continuous
 62
     7
370
    15
100
AcDbLine
 10
1129.1036247332
 20
-138.0383092858
 30
0.0
 11
1128.8035749514
 21
-137.7383097954
 31
0.0
  0
LINE
  5
30C
330
1F
100
AcDbEntity
  8
0
  6
Continuous
 62
     7
370
    15
100
AcDbLine
 10
1089.4035934526
 20
-137.7383097954
 30
0.0
 11
1089.1036628801
 21
-138.0383092858
 31
0.0
  0
LINE
  5
30D
330
1F
100
AcDbEntity
  8
0
  6
Continuous
 62
     7
370
    15
100
AcDbLine
 10
1089.1036628801
 20
-184.9383106403
 30
0.0
 11
1089.4035934526
 21
-185.238308268
 31
0.0
  0
LINE
  5
30E
330
1F
100
AcDbEntity
  8
0
  6
Continuous
 62
     7
370
    15
100
AcDbLine
 10
1128.8035749514
 20
-185.238308268
 30
0.0
 11
1129.1036247332
 21
-184.9383106403
 31
0.0
  0
LINE
  5
30F
330
1F
100
AcDbEntity
  8
0
  6
Continuous
 62
     7
370
    15
100
AcDbLine
 10
176.1036156733
 20
-142.2383096017
 30
0.0
 11
176.1036156733
 21
-143.7383098475
 31
0.0
  0
LINE
  5
310
330
1F
100
AcDbEntity
  8
0
  6
Continuous
 62
     7
370
    15
100
AcDbLine
 10
234.103584202
 20
-143.7383098475
 30
0.0
 11
234.103584202
 21
-142.2383096017
 31
0.0
  0
LINE
  5
311
330
1F
100
AcDbEntity
  8
0
  6
Continuous
 62
     7
370
    15
100
AcDbLine
 10
234.103584202
 20
-163.2383093185
 30
0.0
 11
234.103584202
 21
-161.7383090727
 31
0.0
  0
LINE
  5
312
330
1F
100
AcDbEntity
  8
0
  6
Continuous
 62
     7
370
    15
100
AcDbLine
 10
176.1036156733
 20
-161.7383090727
 30
0.0
 11
176.1036156733
 21
-163.2383093185
 31
0.0
  0
LINE
  5
313
330
1F
100
AcDbEntity
  8
0
  6
Continuous
 62
     7
370
    15
100
AcDbLine
 10
-574.8963863533
 20
-142.2383096017
 30
0.0
 11
-574.8963863533
 21
-143.7383098475
 31
0.0
  0
LINE
  5
314
330
1F
100
AcDbEntity
  8
0
  6
Continuous
 62
     7
370
    15
100
AcDbLine
 10
-516.8963880222
 20
-143.7383098475
 30
0.0
 11
-516.8963880222
 21
-142.2383096017
 31
0.0
  0
LINE
  5
315
330
1F
100
AcDbEntity
  8
0
  6
Continuous
 62
     7
370
    15
100
AcDbLine
 10
-516.8963880222
 20
-163.2383093185
 30
0.0
 11
-516.8963880222
 21
-161.7383090727
 31
0.0
  0
LINE
  5
316
330
1F
100
AcDbEntity
  8
0
  6
Continuous
 62
     7
370
    15
100
AcDbLine
 10
-574.8963863533
 20
-161.7383090727
 30
0.0
 11
-574.8963863533
 21
-163.2383093185
 31
0.0
  0
ARC
  5
317
330
1F
100
AcDbEntity
  8
0
  6
Continuous
 62
     7
370
    15
100
AcDbCircle
 10
243.7036123354
 20
-152.7643608833
 30
0.0
 40
12.49999999999995
100
AcDbArc
 50
140.1746287392
 51
219.8253712608
  0
ARC
  5
318
330
1F
100
AcDbEntity
  8
0
  6
Continuous
 62
     7
370
    15
100
AcDbCircle
 10
166.5036123354
 20
-152.7643608833
 30
0.0
 40
12.49999999999995
100
AcDbArc
 50
320.1746287392
 51
39.8253712608
  0
LINE
  5
319
330
1F
100
AcDbEntity
  8
0
  6
Continuous
 62
     7
370
    15
100
AcDbLine
 10
234.103584202
 20
-144.7587376408
 30
0.0
 11
234.103584202
 21
-143.7383098475
 31
0.0
  0
LINE
  5
31A
330
1F
100
AcDbEntity
  8
0
  6
Continuous
 62
     7
370
    15
100
AcDbLine
 10
176.1036156733
 20
-143.7383098475
 30
0.0
 11
176.1036156733
 21
-144.7587376408
 31
0.0
  0
LINE
  5
31B
330
1F
100
AcDbEntity
  8
0
  6
Continuous
 62
     7
370
    15
100
AcDbLine
 10
234.103584202
 20
-161.7383090727
 30
0.0
 11
234.103584202
 21
-160.7699841208
 31
0.0
  0
LINE
  5
31C
330
1F
100
AcDbEntity
  8
0
  6
Continuous
 62
     7
370
    15
100
AcDbLine
 10
176.1036156733
 20
-160.7699841208
 30
0.0
 11
176.1036156733
 21
-161.7383090727
 31
0.0
  0
ARC
  5
31D
330
1F
100
AcDbEntity
  8
0
  6
Continuous
 62
     7
370
    15
100
AcDbCircle
 10
-507.2963876646
 20
-152.7643608834
 30
0.0
 40
12.50000000000004
100
AcDbArc
 50
140.1746287392
 51
219.8253712608
  0
ARC
  5
31E
330
1F
100
AcDbEntity
  8
0
  6
Continuous
 62
     7
370
    15
100
AcDbCircle
 10
-584.4963876646
 20
-152.7643608834
 30
0.0
 40
12.49999999999993
100
AcDbArc
 50
320.1746287392
 51
39.8253712608
  0
LINE
  5
31F
330
1F
100
AcDbEntity
  8
0
  6
Continuous
 62
     7
370
    15
100
AcDbLine
 10
-516.8963880222
 20
-144.7587376408
 30
0.0
 11
-516.8963880222
 21
-143.7383098475
 31
0.0
  0
LINE
  5
320
330
1F
100
AcDbEntity
  8
0
  6
Continuous
 62
     7
370
    15
100
AcDbLine
 10
-574.8963863533
 20
-143.7383098475
 30
0.0
 11
-574.8963863533
 21
-144.7587376408
 31
0.0
  0
LINE
  5
321
330
1F
100
AcDbEntity
  8
0
  6
Continuous
 62
     7
370
    15
100
AcDbLine
 10
-516.8963880222
 20
-161.7383090727
 30
0.0
 11
-516.8963880222
 21
-160.7699841208
 31
0.0
  0
LINE
  5
322
330
1F
100
AcDbEntity
  8
0
  6
Continuous
 62
     7
370
    15
100
AcDbLine
 10
-574.8963863533
 20
-160.7699841208
 30
0.0
 11
-574.8963863533
 21
-161.7383090727
 31
0.0
  0
LINE
  5
323
330
1F
100
AcDbEntity
  8
0
  6
Continuous
 62
     7
370
    15
100
AcDbLine
 10
220.1035856325
 20
-177.7383098326
 30
0.0
 11
220.1035856325
 21
-175.7383095048
 31
0.0
  0
LINE
  5
324
330
1F
100
AcDbEntity
  8
0
  6
Continuous
 62
     7
370
    15
100
AcDbLine
 10
190.1036142427
 20
-175.7383095048
 30
0.0
 11
190.1036142427
 21
-177.7383098326
 31
0.0
  0
LINE
  5
325
330
1F
100
AcDbEntity
  8
0
  6
Continuous
 62
     7
370
    15
100
AcDbLine
 10
190.1036142427
 20
-177.7383098326
 30
0.0
 11
192.1035884935
 21
-179.7383101605
 31
0.0
  0
LINE
  5
326
330
1F
100
AcDbEntity
  8
0
  6
Continuous
 62
     7
370
    15
100
AcDbLine
 10
218.1036113817
 20
-179.7383101605
 30
0.0
 11
220.1035856325
 21
-177.7383098326
 31
0.0
  0
LINE
  5
327
330
1F
100
AcDbEntity
  8
0
  6
Continuous
 62
     7
370
    15
100
AcDbLine
 10
-530.8963865917
 20
-177.7383098326
 30
0.0
 11
-530.8963865917
 21
-175.7383095048
 31
0.0
  0
LINE
  5
328
330
1F
100
AcDbEntity
  8
0
  6
Continuous
 62
     7
370
    15
100
AcDbLine
 10
-560.8963877838
 20
-175.7383095048
 30
0.0
 11
-560.8963877838
 21
-177.7383098326
 31
0.0
  0
LINE
  5
329
330
1F
100
AcDbEntity
  8
0
  6
Continuous
 62
     7
370
    15
100
AcDbLine
 10
-560.8963877838
 20
-177.7383098326
 30
0.0
 11
-558.8963911813
 21
-179.7383101605
 31
0.0
  0
LINE
  5
32A
330
1F
100
AcDbEntity
  8
0
  6
Continuous
 62
     7
370
    15
100
AcDbLine
 10
-532.8963906448
 20
-179.7383101605
 30
0.0
 11
-530.8963865917
 21
-177.7383098326
 31
0.0
  0
LINE
  5
32B
330
1F
100
AcDbEntity
  8
0
  6
Continuous
 62
     7
370
    15
100
AcDbLine
 10
190.1036142427
 20
-140.7383093558
 30
0.0
 11
190.1036142427
 21
-141.7383095197
 31
0.0
  0
LINE
  5
32C
330
1F
100
AcDbEntity
  8
0
  6
Continuous
 62
     7
370
    15
100
AcDbLine
 10
220.1035856325
 20
-141.7383095197
 30
0.0
 11
220.1035856325
 21
-140.7383093558
 31
0.0
  0
LINE
  5
32D
330
1F
100
AcDbEntity
  8
0
  6
Continuous
 62
     7
370
    15
100
AcDbLine
 10
220.1035856325
 20
-140.7383093558
 30
0.0
 11
218.1036113817
 21
-138.738309028
 31
0.0
  0
LINE
  5
32E
330
1F
100
AcDbEntity
  8
0
  6
Continuous
 62
     7
370
    15
100
AcDbLine
 10
192.1035884935
 20
-138.738309028
 30
0.0
 11
190.1036142427
 21
-140.7383093558
 31
0.0
  0
LINE
  5
32F
330
1F
100
AcDbEntity
  8
0
  6
Continuous
 62
     7
370
    15
100
AcDbLine
 10
195.3535913546
 20
-141.7383095197
 30
0.0
 11
195.3535913546
 21
-142.2383096017
 31
0.0
  0
LINE
  5
330
330
1F
100
AcDbEntity
  8
0
  6
Continuous
 62
     7
370
    15
100
AcDbLine
 10
214.8536085207
 20
-142.2383096017
 30
0.0
 11
214.8536085207
 21
-141.7383095197
 31
0.0
  0
LINE
  5
331
330
1F
100
AcDbEntity
  8
0
  6
Continuous
 62
     7
370
    15
100
AcDbLine
 10
-530.8963865917
 20
-140.7383093558
 30
0.0
 11
-532.8963906448
 21
-138.738309028
 31
0.0
  0
LINE
  5
332
330
1F
100
AcDbEntity
  8
0
  6
Continuous
 62
     7
370
    15
100
AcDbLine
 10
-558.8963911813
 20
-138.738309028
 30
0.0
 11
-560.8963877838
 21
-140.7383093558
 31
0.0
  0
LINE
  5
333
330
1F
100
AcDbEntity
  8
0
  6
Continuous
 62
     7
370
    15
100
AcDbLine
 10
-560.8963877838
 20
-140.7383093558
 30
0.0
 11
-560.8963877838
 21
-141.7383095197
 31
0.0
  0
LINE
  5
334
330
1F
100
AcDbEntity
  8
0
  6
Continuous
 62
     7
370
    15
100
AcDbLine
 10
-530.8963865917
 20
-141.7383095197
 30
0.0
 11
-530.8963865917
 21
-140.7383093558
 31
0.0
  0
LINE
  5
335
330
1F
100
AcDbEntity
  8
0
  6
Continuous
 62
     7
370
    15
100
AcDbLine
 10
-555.6463883203
 20
-141.7383095197
 30
0.0
 11
-555.6463883203
 21
-142.2383096017
 31
0.0
  0
LINE
  5
336
330
1F
100
AcDbEntity
  8
0
  6
Continuous
 62
     7
370
    15
100
AcDbLine
 10
-536.1463860553
 20
-142.2383096017
 30
0.0
 11
-536.1463860553
 21
-141.7383095197
 31
0.0
  0
LINE
  5
337
330
1F
100
AcDbEntity
  8
0
  6
Continuous
 62
     7
370
    15
100
AcDbLine
 10
-530.8963865917
 20
-164.0383098222
 30
0.0
 11
-531.1963842195
 21
-163.7383094005
 31
0.0
  0
LINE
  5
338
330
1F
100
AcDbEntity
  8
0
  6
Continuous
 62
     7
370
    15
100
AcDbLine
 10
-560.5963901561
 20
-163.7383094005
 30
0.0
 11
-560.8963877838
 21
-164.0383098222
 31
0.0
  0
LINE
  5
339
330
1F
100
AcDbEntity
  8
0
  6
Continuous
 62
     7
370
    15
100
AcDbLine
 10
-530.8963865917
 20
-169.4383090309
 30
0.0
 11
-530.8963865917
 21
-164.0383098222
 31
0.0
  0
LINE
  5
33A
330
1F
100
AcDbEntity
  8
0
  6
Continuous
 62
     7
370
    15
100
AcDbLine
 10
-560.8963877838
 20
-164.0383098222
 30
0.0
 11
-560.8963877838
 21
-169.4383090309
 31
0.0
  0
LINE
  5
33B
330
1F
100
AcDbEntity
  8
0
  6
Continuous
 62
     7
370
    15
100
AcDbLine
 10
-560.8963877838
 20
-169.4383090309
 30
0.0
 11
-560.5963901561
 21
-169.738310384
 31
0.0
  0
LINE
  5
33C
330
1F
100
AcDbEntity
  8
0
  6
Continuous
 62
     7
370
    15
100
AcDbLine
 10
-531.1963842195
 20
-169.738310384
 30
0.0
 11
-530.8963865917
 21
-169.4383090309
 31
0.0
  0
LINE
  5
33D
330
1F
100
AcDbEntity
  8
0
  6
Continuous
 62
     7
370
    15
100
AcDbLine
 10
-536.1463860553
 20
-163.7383094005
 30
0.0
 11
-536.1463860553
 21
-163.2383093185
 31
0.0
  0
LINE
  5
33E
330
1F
100
AcDbEntity
  8
0
  6
Continuous
 62
     7
370
    15
100
AcDbLine
 10
-555.6463883203
 20
-163.2383093185
 30
0.0
 11
-555.6463883203
 21
-163.7383094005
 31
0.0
  0
LINE
  5
33F
330
1F
100
AcDbEntity
  8
0
  6
Continuous
 62
     7
370
    15
100
AcDbLine
 10
220.1035856325
 20
-164.0383098222
 30
0.0
 11
219.8035954554
 21
-163.7383094005
 31
0.0
  0
LINE
  5
340
330
1F
100
AcDbEntity
  8
0
  6
Continuous
 62
     7
370
    15
100
AcDbLine
 10
190.4036044199
 20
-163.7383094005
 30
0.0
 11
190.1036142427
 21
-164.0383098222
 31
0.0
  0
LINE
  5
341
330
1F
100
AcDbEntity
  8
0
  6
Continuous
 62
     7
370
    15
100
AcDbLine
 10
220.1035856325
 20
-169.4383090309
 30
0.0
 11
220.1035856325
 21
-164.0383098222
 31
0.0
  0
LINE
  5
342
330
1F
100
AcDbEntity
  8
0
  6
Continuous
 62
     7
370
    15
100
AcDbLine
 10
190.1036142427
 20
-164.0383098222
 30
0.0
 11
190.1036142427
 21
-169.4383090309
 31
0.0
  0
LINE
  5
343
330
1F
100
AcDbEntity
  8
0
  6
Continuous
 62
     7
370
    15
100
AcDbLine
 10
190.1036142427
 20
-169.4383090309
 30
0.0
 11
190.4036044199
 21
-169.738310384
 31
0.0
  0
LINE
  5
344
330
1F
100
AcDbEntity
  8
0
  6
Continuous
 62
     7
370
    15
100
AcDbLine
 10
219.8035954554
 20
-169.738310384
 30
0.0
 11
220.1035856325
 21
-169.4383090309
 31
0.0
  0
LINE
  5
345
330
1F
100
AcDbEntity
  8
0
  6
Continuous
 62
     7
370
    15
100
AcDbLine
 10
214.8536085207
 20
-163.7383094005
 30
0.0
 11
214.8536085207
 21
-163.2383093185
 31
0.0
  0
LINE
  5
346
330
1F
100
AcDbEntity
  8
0
  6
Continuous
 62
     7
370
    15
100
AcDbLine
 10
195.3535913546
 20
-163.2383093185
 30
0.0
 11
195.3535913546
 21
-163.7383094005
 31
0.0
  0
LINE
  5
347
330
1F
100
AcDbEntity
  8
0
  6
Continuous
 62
     7
370
    15
100
AcDbLine
 10
-522.846384434
 20
-165.2383096464
 30
0.0
 11
-521.8463898581
 21
-166.2383098103
 31
0.0
  0
LINE
  5
348
330
1F
100
AcDbEntity
  8
0
  6
Continuous
 62
     7
370
    15
100
AcDbLine
 10
-508.9463950079
 20
-166.2383098103
 30
0.0
 11
-507.9463929813
 21
-165.2383096464
 31
0.0
  0
LINE
  5
349
330
1F
100
AcDbEntity
  8
0
  6
Continuous
 62
     7
370
    15
100
AcDbLine
 10
247.1536039431
 20
-165.2383096464
 30
0.0
 11
248.1535910685
 21
-166.2383098103
 31
0.0
  0
LINE
  5
34A
330
1F
100
AcDbEntity
  8
0
  6
Continuous
 62
     7
370
    15
100
AcDbLine
 10
261.0535859186
 20
-166.2383098103
 30
0.0
 11
262.0536326487
 21
-165.2383096464
 31
0.0
  0
LINE
  5
34B
330
1F
100
AcDbEntity
  8
0
  6
Continuous
 62
     7
370
    15
100
AcDbLine
 10
1017.1535848696
 20
-165.2383096464
 30
0.0
 11
1018.1536315996
 21
-166.2383098103
 31
0.0
  0
LINE
  5
34C
330
1F
100
AcDbEntity
  8
0
  6
Continuous
 62
     7
370
    15
100
AcDbLine
 10
1031.0536264498
 20
-166.2383098103
 30
0.0
 11
1032.0535539705
 21
-165.2383096464
 31
0.0
  0
LINE
  5
34D
330
1F
100
AcDbEntity
  8
0
  6
Continuous
 62
     7
370
    15
100
AcDbLine
 10
1017.1036361773
 20
-122.2383091174
 30
0.0
 11
1017.1036361773
 21
-140.2383092738
 31
0.0
  0
LINE
  5
34E
330
1F
100
AcDbEntity
  8
0
  6
Continuous
 62
     7
370
    15
100
AcDbLine
 10
1032.1036218721
 20
-140.2383092738
 30
0.0
 11
1032.1036218721
 21
-122.2383091174
 31
0.0
  0
LINE
  5
34F
330
1F
100
AcDbEntity
  8
0
  6
Continuous
 62
     7
370
    15
100
AcDbLine
 10
247.1035956461
 20
-122.2383091174
 30
0.0
 11
247.1035956461
 21
-140.2383092738
 31
0.0
  0
LINE
  5
350
330
1F
100
AcDbEntity
  8
0
  6
Continuous
 62
     7
370
    15
100
AcDbLine
 10
262.1036409456
 20
-140.2383092738
 30
0.0
 11
262.1036409456
 21
-122.2383091174
 31
0.0
  0
LINE
  5
351
330
1F
100
AcDbEntity
  8
0
  6
Continuous
 62
     7
370
    15
100
AcDbLine
 10
-522.8963852804
 20
-122.2383091174
 30
0.0
 11
-522.8963852804
 21
-140.2383092738
 31
0.0
  0
LINE
  5
352
330
1F
100
AcDbEntity
  8
0
  6
Continuous
 62
     7
370
    15
100
AcDbLine
 10
-507.8963846844
 20
-140.2383092738
 30
0.0
 11
-507.8963846844
 21
-122.2383091174
 31
0.0
  0
LINE
  5
353
330
1F
100
AcDbEntity
  8
0
  6
Continuous
 62
     7
370
    15
100
AcDbLine
 10
224.6036171038
 20
-118.2383103244
 30
0.0
 11
224.6036171038
 21
-120.2383106522
 31
0.0
  0
LINE
  5
354
330
1F
100
AcDbEntity
  8
0
  6
Continuous
 62
     7
370
    15
100
AcDbLine
 10
284.603619488
 20
-120.2383106522
 30
0.0
 11
284.603619488
 21
-118.2383103244
 31
0.0
  0
LINE
  5
355
330
1F
100
AcDbEntity
  8
0
  6
Continuous
 62
     7
370
    15
100
AcDbLine
 10
224.6036171038
 20
-120.2383106522
 30
0.0
 11
239.6036027987
 21
-122.2383091174
 31
0.0
  0
LINE
  5
356
330
1F
100
AcDbEntity
  8
0
  6
Continuous
 62
     7
370
    15
100
AcDbLine
 10
269.6036337931
 20
-122.2383091174
 30
0.0
 11
284.603619488
 21
-120.2383106522
 31
0.0
  0
LINE
  5
357
330
1F
100
AcDbEntity
  8
0
  6
Continuous
 62
     7
370
    15
100
AcDbLine
 10
-545.3963861745
 20
-118.2383103244
 30
0.0
 11
-545.3963861745
 21
-120.2383106522
 31
0.0
  0
LINE
  5
358
330
1F
100
AcDbEntity
  8
0
  6
Continuous
 62
     7
370
    15
100
AcDbLine
 10
-485.3963912409
 20
-120.2383106522
 30
0.0
 11
-485.3963912409
 21
-118.2383103244
 31
0.0
  0
LINE
  5
359
330
1F
100
AcDbEntity
  8
0
  6
Continuous
 62
     7
370
    15
100
AcDbLine
 10
-545.3963861745
 20
-120.2383106522
 30
0.0
 11
-530.3963855784
 21
-122.2383091174
 31
0.0
  0
LINE
  5
35A
330
1F
100
AcDbEntity
  8
0
  6
Continuous
 62
     7
370
    15
100
AcDbLine
 10
-500.3963918369
 20
-122.2383091174
 30
0.0
 11
-485.3963912409
 21
-120.2383106522
 31
0.0
  0
LINE
  5
35B
330
1F
100
AcDbEntity
  8
0
  6
Continuous
 62
     7
370
    15
100
AcDbLine
 10
994.6035980303
 20
-118.2383103244
 30
0.0
 11
994.6035980303
 21
-120.2383106522
 31
0.0
  0
LINE
  5
35C
330
1F
100
AcDbEntity
  8
0
  6
Continuous
 62
     7
370
    15
100
AcDbLine
 10
1054.6036600191
 20
-120.2383106522
 30
0.0
 11
1054.6036600191
 21
-118.2383103244
 31
0.0
  0
LINE
  5
35D
330
1F
100
AcDbEntity
  8
0
  6
Continuous
 62
     7
370
    15
100
AcDbLine
 10
994.6035980303
 20
-120.2383106522
 30
0.0
 11
1009.6035837252
 21
-122.2383091174
 31
0.0
  0
LINE
  5
35E
330
1F
100
AcDbEntity
  8
0
  6
Continuous
 62
     7
370
    15
100
AcDbLine
 10
1039.6035551149
 20
-122.2383091174
 30
0.0
 11
1054.6036600191
 21
-120.2383106522
 31
0.0
  0
LINE
  5
35F
330
1F
100
AcDbEntity
  8
0
  6
Continuous
 62
     7
370
    15
100
AcDbLine
 10
-644.3963876171
 20
-140.2383092738
 30
0.0
 11
-645.3963876646
 21
-141.2383094377
 31
0.0
  0
LINE
  5
360
330
1F
100
AcDbEntity
  8
0
  6
Continuous
 62
     7
370
    15
100
AcDbLine
 10
-645.3963876646
 20
-164.2383094824
 30
0.0
 11
-644.3963876171
 21
-165.2383096464
 31
0.0
  0
LINE
  5
361
330
1F
100
AcDbEntity
  8
0
  6
Continuous
 62
     7
370
    15
100
AcDbLine
 10
1153.6036371309
 20
-165.2383096464
 30
0.0
 11
1154.6035646517
 21
-164.2383094824
 31
0.0
  0
LINE
  5
362
330
1F
100
AcDbEntity
  8
0
  6
Continuous
 62
     7
370
    15
100
AcDbLine
 10
1154.6035646517
 20
-141.2383094377
 30
0.0
 11
1153.6036371309
 21
-140.2383092738
 31
0.0
  0
LINE
  5
363
330
1F
100
AcDbEntity
  8
0
  6
Continuous
 62
     7
370
    15
100
AcDbLine
 10
1032.1535705645
 20
-165.2383096464
 30
0.0
 11
1090.119683655
 21
-165.2383096464
 31
0.0
  0
LINE
  5
364
330
1F
100
AcDbEntity
  8
0
  6
Continuous
 62
     7
370
    15
100
AcDbLine
 10
1128.1724809725
 20
-165.2383096464
 30
0.0
 11
1153.6036371309
 21
-165.2383096464
 31
0.0
  0
LINE
  5
365
330
1F
100
AcDbEntity
  8
0
  6
Continuous
 62
     7
370
    15
100
AcDbLine
 10
262.153589638
 20
-165.2383096464
 30
0.0
 11
1017.0855163652
 21
-165.2383096464
 31
0.0
  0
LINE
  5
366
330
1F
100
AcDbEntity
  8
0
  6
Continuous
 62
     7
370
    15
100
AcDbLine
 10
-507.8463912886
 20
-165.2383096464
 30
0.0
 11
190.1036142427
 21
-165.2383096464
 31
0.0
  0
LINE
  5
367
330
1F
100
AcDbEntity
  8
0
  6
Continuous
 62
     7
370
    15
100
AcDbLine
 10
220.1035856325
 20
-165.2383096464
 30
0.0
 11
247.0855950434
 21
-165.2383096464
 31
0.0
  0
LINE
  5
368
330
1F
100
AcDbEntity
  8
0
  6
Continuous
 62
     7
370
    15
100
AcDbLine
 10
-644.3963876171
 20
-165.2383096464
 30
0.0
 11
-618.8802667838
 21
-165.2383096464
 31
0.0
  0
LINE
  5
369
330
1F
100
AcDbEntity
  8
0
  6
Continuous
 62
     7
370
    15
100
AcDbLine
 10
-580.8274880927
 20
-165.2383096464
 30
0.0
 11
-560.8963877838
 21
-165.2383096464
 31
0.0
  0
LINE
  5
36A
330
1F
100
AcDbEntity
  8
0
  6
Continuous
 62
     7
370
    15
100
AcDbLine
 10
-530.8963865917
 20
-165.2383096464
 30
0.0
 11
-522.9144305866
 21
-165.2383096464
 31
0.0
  0
LINE
  5
36B
330
1F
100
AcDbEntity
  8
0
  6
Continuous
 62
     7
370
    15
100
AcDbLine
 10
-522.8963852804
 20
-140.2383092738
 30
0.0
 11
-531.396387605
 21
-140.2383092738
 31
0.0
  0
LINE
  5
36C
330
1F
100
AcDbEntity
  8
0
  6
Continuous
 62
     7
370
    15
100
AcDbLine
 10
-560.3963867705
 20
-140.2383092738
 30
0.0
 11
-580.8977023642
 21
-140.2383092738
 31
0.0
  0
LINE
  5
36D
330
1F
100
AcDbEntity
  8
0
  6
Continuous
 62
     7
370
    15
100
AcDbLine
 10
-618.8890286665
 20
-140.2383092738
 30
0.0
 11
-644.3963876171
 21
-140.2383092738
 31
0.0
  0
LINE
  5
36E
330
1F
100
AcDbEntity
  8
0
  6
Continuous
 62
     7
370
    15
100
AcDbLine
 10
247.1035956461
 20
-140.2383092738
 30
0.0
 11
219.6036218721
 21
-140.2383092738
 31
0.0
  0
LINE
  5
36F
330
1F
100
AcDbEntity
  8
0
  6
Continuous
 62
     7
370
    15
100
AcDbLine
 10
190.6036376078
 20
-140.2383092738
 30
0.0
 11
-507.9142511766
 21
-140.2383092738
 31
0.0
  0
LINE
  5
370
330
1F
100
AcDbEntity
  8
0
  6
Continuous
 62
     7
370
    15
100
AcDbLine
 10
1017.1036361773
 20
-140.2383092738
 30
0.0
 11
262.0857595522
 21
-140.2383092738
 31
0.0
  0
LINE
  5
371
330
1F
100
AcDbEntity
  8
0
  6
Continuous
 62
     7
370
    15
100
AcDbLine
 10
1153.6036371309
 20
-140.2383092738
 30
0.0
 11
1128.1022667009
 21
-140.2383092738
 31
0.0
  0
LINE
  5
372
330
1F
100
AcDbEntity
  8
0
  6
Continuous
 62
     7
370
    15
100
AcDbLine
 10
1090.1109813768
 20
-140.2383092738
 30
0.0
 11
1032.0857404787
 21
-140.2383092738
 31
0.0
  0
LINE
  5
373
330
1F
100
AcDbEntity
  8
0
  6
Continuous
 62
     7
370
    15
100
AcDbLine
 10
-574.5963887256
 20
-180.4550522886
 30
0.0
 11
-574.5963887256
 21
-165.6383098982
 31
0.0
  0
LINE
  5
374
330
1F
100
AcDbEntity
  8
0
  6
Continuous
 62
     7
370
    15
100
AcDbLine
 10
-574.5963887256
 20
-183.8383087836
 30
0.0
 11
-574.5963887256
 21
-180.4550522886
 31
0.0
  0
LINE
  5
375
330
1F
100
AcDbEntity
  8
0
  6
Continuous
 62
     7
370
    15
100
AcDbLine
 10
-579.69638565
 20
-180.4550522886
 30
0.0
 11
-579.69638565
 21
-183.8383087836
 31
0.0
  0
LINE
  5
376
330
1F
100
AcDbEntity
  8
0
  6
Continuous
 62
     7
370
    15
100
AcDbLine
 10
-579.69638565
 20
-165.6383098982
 30
0.0
 11
-579.69638565
 21
-180.4550522886
 31
0.0
  0
LINE
  5
377
330
1F
100
AcDbEntity
  8
0
  6
Continuous
 62
     7
370
    15
100
AcDbLine
 10
-574.39638534
 20
-180.3294094227
 30
0.0
 11
-574.39638534
 21
-183.6383091233
 31
0.0
  0
LINE
  5
378
330
1F
100
AcDbEntity
  8
0
  6
Continuous
 62
     7
370
    15
100
AcDbLine
 10
-574.39638534
 20
-165.8383095584
 30
0.0
 11
-574.39638534
 21
-180.3294094227
 31
0.0
  0
LINE
  5
379
330
1F
100
AcDbEntity
  8
0
  6
Continuous
 62
     7
370
    15
100
AcDbLine
 10
1083.8036178667
 20
-165.6383098982
 30
0.0
 11
1083.8036178667
 21
-183.8383087836
 31
0.0
  0
LINE
  5
37A
330
1F
100
AcDbEntity
  8
0
  6
Continuous
 62
     7
370
    15
100
AcDbLine
 10
1088.9036296923
 20
-183.8383087836
 30
0.0
 11
1088.9036296923
 21
-165.6383098982
 31
0.0
  0
LINE
  5
37B
330
1F
100
AcDbEntity
  8
0
  6
Continuous
 62
     7
370
    15
100
AcDbLine
 10
1083.6035846788
 20
-183.6383091233
 30
0.0
 11
1083.6035846788
 21
-165.8383095584
 31
0.0
  0
LINE
  5
37C
330
1F
100
AcDbEntity
  8
0
  6
Continuous
 62
     7
370
    15
100
AcDbLine
 10
1058.6036085207
 20
-169.3347981147
 30
0.0
 11
1058.6036085207
 21
-169.0883086942
 31
0.0
  0
LINE
  5
37D
330
1F
100
AcDbEntity
  8
0
  6
Continuous
 62
     7
370
    15
100
AcDbLine
 10
1058.6036085207
 20
-180.3883099876
 30
0.0
 11
1058.6036085207
 21
-169.3347981147
 31
0.0
  0
LINE
  5
37E
330
1F
100
AcDbEntity
  8
0
  6
Continuous
 62
     7
370
    15
100
AcDbLine
 10
-565.3963894527
 20
-170.1448569022
 30
0.0
 11
-565.3963894527
 21
-180.3883099876
 31
0.0
  0
LINE
  5
37F
330
1F
100
AcDbEntity
  8
0
  6
Continuous
 62
     7
370
    15
100
AcDbLine
 10
-565.3963894527
 20
-169.0883086942
 30
0.0
 11
-565.3963894527
 21
-170.1448569022
 31
0.0
  0
LINE
  5
380
330
1F
100
AcDbEntity
  8
0
  6
Continuous
 62
     7
370
    15
100
AcDbLine
 10
1056.6036342699
 20
-169.738310384
 30
0.0
 11
1056.6036342699
 21
-179.7383101605
 31
0.0
  0
LINE
  5
381
330
1F
100
AcDbEntity
  8
0
  6
Continuous
 62
     7
370
    15
100
AcDbLine
 10
-563.3963853996
 20
-179.7383101605
 30
0.0
 11
-563.3963853996
 21
-169.738310384
 31
0.0
  0
LINE
  5
382
330
1F
100
AcDbEntity
  8
0
  6
Continuous
 62
     7
370
    15
100
AcDbLine
 10
-620.0963878017
 20
-166.2633093021
 30
0.0
 11
-620.0963878017
 21
-183.2133093796
 31
0.0
  0
LINE
  5
383
330
1F
100
AcDbEntity
  8
0
  6
Continuous
 62
     7
370
    15
100
AcDbLine
 10
-620.3963872921
 20
-182.9133098893
 30
0.0
 11
-620.3963872921
 21
-166.5633097238
 31
0.0
  0
LINE
  5
384
330
1F
100
AcDbEntity
  8
0
  6
Continuous
 62
     7
370
    15
100
AcDbLine
 10
1129.303657921
 20
-169.5903716556
 30
0.0
 11
1129.303657921
 21
-166.2633093021
 31
0.0
  0
LINE
  5
385
330
1F
100
AcDbEntity
  8
0
  6
Continuous
 62
     7
370
    15
100
AcDbLine
 10
1129.303657921
 20
-183.2133093796
 30
0.0
 11
1129.303657921
 21
-169.5903716556
 31
0.0
  0
LINE
  5
386
330
1F
100
AcDbEntity
  8
0
  6
Continuous
 62
     7
370
    15
100
AcDbLine
 10
1129.6035884935
 20
-169.7725998185
 30
0.0
 11
1129.6035884935
 21
-182.9133098893
 31
0.0
  0
LINE
  5
387
330
1F
100
AcDbEntity
  8
0
  6
Continuous
 62
     7
370
    15
100
AcDbLine
 10
1129.6035884935
 20
-166.5633097238
 30
0.0
 11
1129.6035884935
 21
-169.7725998185
 31
0.0
  0
LINE
  5
388
330
1F
100
AcDbEntity
  8
0
  6
Continuous
 62
     7
370
    15
100
AcDbLine
 10
-579.8963890355
 20
-185.4383079283
 30
0.0
 11
-619.8963881414
 21
-185.4383079283
 31
0.0
  0
LINE
  5
389
330
1F
100
AcDbEntity
  8
0
  6
Continuous
 62
     7
370
    15
100
AcDbLine
 10
-580.1211879533
 20
-185.238308268
 30
0.0
 11
-580.0963849705
 21
-185.238308268
 31
0.0
  0
LINE
  5
38A
330
1F
100
AcDbEntity
  8
0
  6
Continuous
 62
     7
370
    15
100
AcDbLine
 10
-619.6963884812
 20
-185.238308268
 30
0.0
 11
-580.1211879533
 21
-185.238308268
 31
0.0
  0
LINE
  5
38B
330
1F
100
AcDbEntity
  8
0
  6
Continuous
 62
     7
370
    15
100
AcDbLine
 10
-579.9214378875
 20
-188.2383106224
 30
0.0
 11
-579.8963890355
 21
-188.2383106224
 31
0.0
  0
LINE
  5
38C
330
1F
100
AcDbEntity
  8
0
  6
Continuous
 62
     7
370
    15
100
AcDbLine
 10
-619.8963881414
 20
-188.2383106224
 30
0.0
 11
-579.9214378875
 21
-188.2383106224
 31
0.0
  0
LINE
  5
38D
330
1F
100
AcDbEntity
  8
0
  6
Continuous
 62
     7
370
    15
100
AcDbLine
 10
-581.896385638
 20
-190.2383109502
 30
0.0
 11
-617.8963878136
 21
-190.2383109502
 31
0.0
  0
LINE
  5
38E
330
1F
100
AcDbEntity
  8
0
  6
Continuous
 62
     7
370
    15
100
AcDbLine
 10
1127.1597980578
 20
-185.4383079283
 30
0.0
 11
1089.1036628801
 21
-185.4383079283
 31
0.0
  0
LINE
  5
38F
330
1F
100
AcDbEntity
  8
0
  6
Continuous
 62
     7
370
    15
100
AcDbLine
 10
1129.1036247332
 20
-185.4383079283
 30
0.0
 11
1127.1597980578
 21
-185.4383079283
 31
0.0
  0
LINE
  5
390
330
1F
100
AcDbEntity
  8
0
  6
Continuous
 62
     7
370
    15
100
AcDbLine
 10
1126.9791959841
 20
-185.238308268
 30
0.0
 11
1128.9035915453
 21
-185.238308268
 31
0.0
  0
LINE
  5
391
330
1F
100
AcDbEntity
  8
0
  6
Continuous
 62
     7
370
    15
100
AcDbLine
 10
1089.3035768587
 20
-185.238308268
 30
0.0
 11
1126.9791959841
 21
-185.238308268
 31
0.0
  0
LINE
  5
392
330
1F
100
AcDbEntity
  8
0
  6
Continuous
 62
     7
370
    15
100
AcDbLine
 10
1127.1597980578
 20
-188.2383106224
 30
0.0
 11
1129.1036247332
 21
-188.2383106224
 31
0.0
  0
LINE
  5
393
330
1F
100
AcDbEntity
  8
0
  6
Continuous
 62
     7
370
    15
100
AcDbLine
 10
1089.1036628801
 20
-188.2383106224
 30
0.0
 11
1127.1597980578
 21
-188.2383106224
 31
0.0
  0
LINE
  5
394
330
1F
100
AcDbEntity
  8
0
  6
Continuous
 62
     7
370
    15
100
AcDbLine
 10
1125.3541349489
 20
-190.2383109502
 30
0.0
 11
1091.1036371309
 21
-190.2383109502
 31
0.0
  0
LINE
  5
395
330
1F
100
AcDbEntity
  8
0
  6
Continuous
 62
     7
370
    15
100
AcDbLine
 10
1127.1036504824
 20
-190.2383109502
 30
0.0
 11
1125.3541349489
 21
-190.2383109502
 31
0.0
  0
LINE
  5
396
330
1F
100
AcDbEntity
  8
0
  6
Continuous
 62
     7
370
    15
100
AcDbLine
 10
-579.8963890355
 20
-138.0383092858
 30
0.0
 11
-619.8963881414
 21
-138.0383092858
 31
0.0
  0
LINE
  5
397
330
1F
100
AcDbEntity
  8
0
  6
Continuous
 62
     7
370
    15
100
AcDbLine
 10
-619.5963867884
 20
-137.7383097954
 30
0.0
 11
-580.1963866632
 21
-137.7383097954
 31
0.0
  0
LINE
  5
398
330
1F
100
AcDbEntity
  8
0
  6
Continuous
 62
     7
370
    15
100
AcDbLine
 10
-619.8963881414
 20
-184.9383106403
 30
0.0
 11
-579.8963890355
 21
-184.9383106403
 31
0.0
  0
SPLINE
  5
399
330
1F
100
AcDbEntity
  8
0
  6
Continuous
 62
     7
370
    15
100
AcDbSpline
210
0.0
220
0.0
230
1.0
 70
     8
 71
     3
 72
    25
 73
    21
 74
     0
 42
0.000000001
 43
0.00000001
 40
0.0
 40
0.0
 40
0.0
 40
0.0
 40
0.0640693144296347
 40
0.1453732769374986
 40
0.2036615677185432
 40
0.2636277849872437
 40
0.3230560891592011
 40
0.3839676420358706
 40
0.4406024706545419
 40
0.4883892090538861
 40
0.5363970803705469
 40
0.5990988336928803
 40
0.6541419757184429
 40
0.7106123420714158
 40
0.7696597035381638
 40
0.8302132616482101
 40
0.8768508880149902
 40
0.9246915201824627
 40
0.9714006025560886
 40
1.0
 40
1.0
 40
1.0
 40
1.0
 10
-619.3993003051714
 20
-140.2383092738321
 30
0.0
 10
-619.1652716737024
 20
-140.2137694843896
 30
0.0
 10
-618.6342606997795
 20
-140.1580887011884
 30
0.0
 10
-617.2168695372911
 20
-141.1285373481544
 30
0.0
 10
-615.6267180252603
 20
-142.4721841832289
 30
0.0
 10
-614.0775600995755
 20
-143.9887501717836
 30
0.0
 10
-612.4720933942662
 20
-145.7909074181723
 30
0.0
 10
-610.9661250182756
 20
-147.8313667835128
 30
0.0
 10
-609.805524566929
 20
-150.0419814612404
 30
0.0
 10
-609.2754647393209
 20
-152.3802516919527
 30
0.0
 10
-609.5801702566623
 20
-154.8757104937534
 30
0.0
 10
-610.671979298489
 20
-157.170500317147
 30
0.0
 10
-612.1153929149012
 20
-159.23376575457
 30
0.0
 10
-613.6278321996128
 20
-161.0073613502004
 30
0.0
 10
-615.1798156655857
 20
-162.5870219409621
 30
0.0
 10
-616.5551439006879
 20
-163.8084464018165
 30
0.0
 10
-617.6983846865871
 20
-164.6756182259908
 30
0.0
 10
-618.5720224823352
 20
-165.1825174251397
 30
0.0
 10
-619.1939431512901
 20
-165.4026509995575
 30
0.0
 10
-619.4092981993675
 20
-165.2835426335071
 30
0.0
 10
-619.4910821448998
 20
-165.2383096463611
 30
0.0
  0
LWPOLYLINE
  5
39A
330
1F
100
AcDbEntity
  8
0
  6
Continuous
 62
     7
370
    15
100
AcDbPolyline
 90
       19
 70
   128
 43
0.0
 10
-580.2109674495
 20
-165.2383096464
 10
-580.5968032163
 20
-165.335897351
 10
-581.8545431774
 20
-164.8038299702
 10
-583.7787561994
 20
-163.3191117964
 10
-585.396508215
 20
-161.7802986823
 10
-587.1216752511
 20
-159.8684233561
 10
-588.2826098185
 20
-158.3476737089
 10
-589.3427715581
 20
-156.6148244258
 10
-590.2076610308
 20
-154.3497460609
 10
-590.3814011198
 20
-152.2788248205
 10
-589.9537415188
 20
-150.258157397
 10
-588.4615317862
 20
-147.3901751399
 10
-586.8805297595
 20
-145.3205170057
 10
-585.2028788012
 20
-143.5001855664
 10
-583.5968390983
 20
-141.9989522494
 10
-582.1209312361
 20
-140.8472834102
 10
-581.2329710405
 20
-140.3298536263
 10
-580.531469075
 20
-140.1383094437
 10
-580.531469075
 20
-140.1383094437
  0
LINE
  5
39B
330
1F
100
AcDbEntity
  8
0
  6
Continuous
 62
     7
370
    15
100
AcDbLine
 10
1129.1036247332
 20
-138.0383092858
 30
0.0
 11
1089.1036628801
 21
-138.0383092858
 31
0.0
  0
LINE
  5
39C
330
1F
100
AcDbEntity
  8
0
  6
Continuous
 62
     7
370
    15
100
AcDbLine
 10
1089.1036628801
 20
-184.9383106403
 30
0.0
 11
1129.1036247332
 21
-184.9383106403
 31
0.0
  0
SPLINE
  5
39D
330
1F
100
AcDbEntity
  8
0
  6
Continuous
 62
     7
370
    15
100
AcDbSpline
210
0.0
220
0.0
230
1.0
 70
     8
 71
     3
 72
    25
 73
    21
 74
     0
 42
0.000000001
 43
0.00000001
 40
0.0
 40
0.0
 40
0.0
 40
0.0
 40
0.0640694071127938
 40
0.1453731259945956
 40
0.2036621330083937
 40
0.2636285961073747
 40
0.3230561314210338
 40
0.383967983565945
 40
0.4406024987245607
 40
0.4883892350130454
 40
0.536396958390658
 40
0.5990986667527604
 40
0.6541419366101026
 40
0.7106125333384806
 40
0.7696595824072722
 40
0.8302135827648401
 40
0.8768513640231879
 40
0.9246920896065457
 40
0.9714010028826798
 40
1.0
 40
1.0
 40
1.0
 40
1.0
 10
1089.600646408276
 20
-140.2383092738321
 30
0.0
 10
1089.834687643983
 20
-140.2137686243428
 30
0.0
 10
1090.365725897334
 20
-140.1580860280622
 30
0.0
 10
1091.783059256514
 20
-141.1285492351278
 30
0.0
 10
1093.373306655653
 20
-142.4721797479764
 30
0.0
 10
1094.922492931327
 20
-143.9887300231315
 30
0.0
 10
1096.527874205224
 20
-145.7909331921496
 30
0.0
 10
1098.033904394604
 20
-147.8313481106068
 30
0.0
 10
1099.194453229616
 20
-150.0419917423454
 30
0.0
 10
1099.724514758001
 20
-152.380246065761
 30
0.0
 10
1099.419890236588
 20
-154.8757150045109
 30
0.0
 10
1098.328056055554
 20
-157.1705030903883
 30
0.0
 10
1096.884635998931
 20
-159.2337688266159
 30
0.0
 10
1095.372162236806
 20
-161.0073500751939
 30
0.0
 10
1093.820219778733
 20
-162.5870353102222
 30
0.0
 10
1092.44483630152
 20
-163.808442344414
 30
0.0
 10
1091.301579299486
 20
-164.6756185102684
 30
0.0
 10
1090.427929341182
 20
-165.1825157359797
 30
0.0
 10
1089.805992454749
 20
-165.4026514255131
 30
0.0
 10
1089.590724724024
 20
-165.2835425397348
 30
0.0
 10
1089.508974464612
 20
-165.2383096463611
 30
0.0
  0
LWPOLYLINE
  5
39E
330
1F
100
AcDbEntity
  8
0
  6
Continuous
 62
     7
370
    15
100
AcDbPolyline
 90
       19
 70
   128
 43
0.0
 10
1128.789031418
 20
-165.2383096464
 10
1128.4031509478
 20
-165.335897351
 10
1127.145492943
 20
-164.8038299702
 10
1125.2212165911
 20
-163.3191117964
 10
1123.6035465319
 20
-161.7802986823
 10
1121.8783496935
 20
-159.8684233561
 10
1120.7173704226
 20
-158.3476737089
 10
1119.6572422106
 20
-156.6148244258
 10
1118.7923788149
 20
-154.3497460609
 10
1118.6185716707
 20
-152.2788248205
 10
1119.0462946016
 20
-150.258157397
 10
1120.5384372789
 20
-147.3901751399
 10
1122.1195100863
 20
-145.3205170057
 10
1123.7971424181
 20
-143.5001855664
 10
1125.4031299669
 20
-141.9989522494
 10
1126.8790601809
 20
-140.8472834102
 10
1127.7670501787
 20
-140.3298536263
 10
1128.4684776384
 20
-140.1383094437
 10
1128.4684776384
 20
-140.1383094437
  0
LINE
  5
39F
330
1F
100
AcDbEntity
  8
0
  6
Continuous
 62
     7
370
    15
100
AcDbLine
 10
1089.4035934526
 20
-137.7383097954
 30
0.0
 11
1128.8035749514
 21
-137.7383097954
 31
0.0
  0
LINE
  5
3A0
330
1F
100
AcDbEntity
  8
0
  6
Continuous
 62
     7
370
    15
100
AcDbLine
 10
219.1035985071
 20
-139.7383091919
 30
0.0
 11
220.1035856325
 21
-139.7383091919
 31
0.0
  0
LINE
  5
3A1
330
1F
100
AcDbEntity
  8
0
  6
Continuous
 62
     7
370
    15
100
AcDbLine
 10
220.1035856325
 20
-139.7383091919
 30
0.0
 11
220.1035856325
 21
-140.2383092738
 31
0.0
  0
LINE
  5
3A2
330
1F
100
AcDbEntity
  8
0
  6
Continuous
 62
     7
370
    15
100
AcDbLine
 10
220.1035856325
 20
-169.4383090309
 30
0.0
 11
220.1035856325
 21
-169.738310384
 31
0.0
  0
LINE
  5
3A3
330
1F
100
AcDbEntity
  8
0
  6
Continuous
 62
     7
370
    15
100
AcDbLine
 10
190.1036142427
 20
-169.738310384
 30
0.0
 11
190.1036142427
 21
-169.4383090309
 31
0.0
  0
LINE
  5
3A4
330
1F
100
AcDbEntity
  8
0
  6
Continuous
 62
     7
370
    15
100
AcDbLine
 10
190.1036142427
 20
-140.2383092738
 30
0.0
 11
190.1036142427
 21
-139.7383091919
 31
0.0
  0
LINE
  5
3A5
330
1F
100
AcDbEntity
  8
0
  6
Continuous
 62
     7
370
    15
100
AcDbLine
 10
190.1036142427
 20
-139.7383091919
 30
0.0
 11
191.1036013681
 21
-139.7383091919
 31
0.0
  0
LINE
  5
3A6
330
1F
100
AcDbEntity
  8
0
  6
Continuous
 62
     7
370
    15
100
AcDbLine
 10
-560.8963877838
 20
-169.738310384
 30
0.0
 11
-560.8963877838
 21
-169.4383090309
 31
0.0
  0
LINE
  5
3A7
330
1F
100
AcDbEntity
  8
0
  6
Continuous
 62
     7
370
    15
100
AcDbLine
 10
-560.8963877838
 20
-140.2383092738
 30
0.0
 11
-560.8963877838
 21
-139.7383091919
 31
0.0
  0
LINE
  5
3A8
330
1F
100
AcDbEntity
  8
0
  6
Continuous
 62
     7
370
    15
100
AcDbLine
 10
-560.8963877838
 20
-139.7383091919
 30
0.0
 11
-559.8963857573
 21
-139.7383091919
 31
0.0
  0
LINE
  5
3A9
330
1F
100
AcDbEntity
  8
0
  6
Continuous
 62
     7
370
    15
100
AcDbLine
 10
-531.8963886183
 20
-139.7383091919
 30
0.0
 11
-530.8963865917
 21
-139.7383091919
 31
0.0
  0
LINE
  5
3AA
330
1F
100
AcDbEntity
  8
0
  6
Continuous
 62
     7
370
    15
100
AcDbLine
 10
-530.8963865917
 20
-139.7383091919
 30
0.0
 11
-530.8963865917
 21
-140.2383092738
 31
0.0
  0
LINE
  5
3AB
330
1F
100
AcDbEntity
  8
0
  6
Continuous
 62
     7
370
    15
100
AcDbLine
 10
-530.8963865917
 20
-169.4383090309
 30
0.0
 11
-530.8963865917
 21
-169.738310384
 31
0.0
  0
LINE
  5
3AC
330
1F
100
AcDbEntity
  8
0
  6
Continuous
 62
     7
370
    15
100
AcDbLine
 10
190.1036142427
 20
-169.738310384
 30
0.0
 11
190.1036142427
 21
-175.7383095048
 31
0.0
  0
LINE
  5
3AD
330
1F
100
AcDbEntity
  8
0
  6
Continuous
 62
     7
370
    15
100
AcDbLine
 10
220.1035856325
 20
-169.738310384
 30
0.0
 11
220.1035856325
 21
-175.7383095048
 31
0.0
  0
LINE
  5
3AE
330
1F
100
AcDbEntity
  8
0
  6
Continuous
 62
     7
370
    15
100
AcDbLine
 10
190.1036142427
 20
-175.7383095048
 30
0.0
 11
220.1035856325
 21
-175.7383095048
 31
0.0
  0
LINE
  5
3AF
330
1F
100
AcDbEntity
  8
0
  6
Continuous
 62
     7
370
    15
100
AcDbLine
 10
190.1036142427
 20
-169.738310384
 30
0.0
 11
220.1035856325
 21
-169.738310384
 31
0.0
  0
LINE
  5
3B0
330
1F
100
AcDbEntity
  8
0
  6
Continuous
 62
     7
370
    15
100
AcDbLine
 10
-560.8963877838
 20
-169.738310384
 30
0.0
 11
-560.8963877838
 21
-175.7383095048
 31
0.0
  0
LINE
  5
3B1
330
1F
100
AcDbEntity
  8
0
  6
Continuous
 62
     7
370
    15
100
AcDbLine
 10
-530.8963865917
 20
-169.738310384
 30
0.0
 11
-530.8963865917
 21
-175.7383095048
 31
0.0
  0
LINE
  5
3B2
330
1F
100
AcDbEntity
  8
0
  6
Continuous
 62
     7
370
    15
100
AcDbLine
 10
-560.8963877838
 20
-175.7383095048
 30
0.0
 11
-530.8963865917
 21
-175.7383095048
 31
0.0
  0
LINE
  5
3B3
330
1F
100
AcDbEntity
  8
0
  6
Continuous
 62
     7
370
    15
100
AcDbLine
 10
-560.8963877838
 20
-169.738310384
 30
0.0
 11
-530.8963865917
 21
-169.738310384
 31
0.0
  0
LINE
  5
3B4
330
1F
100
AcDbEntity
  8
0
  6
Continuous
 62
     7
370
    15
100
AcDbLine
 10
304.6036004145
 20
-176.2383086554
 30
0.0
 11
220.1035856325
 21
-176.2383086554
 31
0.0
  0
LINE
  5
3B5
330
1F
100
AcDbEntity
  8
0
  6
Continuous
 62
     7
370
    15
100
AcDbLine
 10
190.1036142427
 20
-176.2383086554
 30
0.0
 11
-530.8963865917
 21
-176.2383086554
 31
0.0
  0
LINE
  5
3B6
330
1F
100
AcDbEntity
  8
0
  6
Continuous
 62
     7
370
    15
100
AcDbLine
 10
-560.8963877838
 20
-176.2383086554
 30
0.0
 11
-563.3963853996
 21
-176.2383086554
 31
0.0
  0
LINE
  5
3B7
330
1F
100
AcDbEntity
  8
0
  6
Continuous
 62
     7
370
    15
100
AcDbLine
 10
-620.3963872921
 20
-176.2383086554
 30
0.0
 11
-645.3963876646
 21
-176.2383086554
 31
0.0
  0
LWPOLYLINE
  5
3B8
330
1F
100
AcDbEntity
  8
0
  6
Continuous
 62
     7
370
    15
100
AcDbPolyline
 90
        3
 70
   128
 43
0.0
 10
-575.8963883799
 20
-139.2383091099
 10
-578.3211202305
 20
-139.4291398994
 10
-579.8963890355
 20
-139.7633301042
  0
LINE
  5
3B9
330
1F
100
AcDbEntity
  8
0
  6
Continuous
 62
     7
370
    15
100
AcDbLine
 10
-563.3963853996
 20
-170.2383095346
 30
0.0
 11
-560.8963877838
 21
-170.2383095346
 31
0.0
  0
LINE
  5
3BA
330
1F
100
AcDbEntity
  8
0
  6
Continuous
 62
     7
370
    15
100
AcDbLine
 10
-530.8963865917
 20
-170.2383095346
 30
0.0
 11
-514.8963839691
 21
-170.2383095346
 31
0.0
  0
ARC
  5
3BB
330
1F
100
AcDbEntity
  8
0
  6
Continuous
 62
     7
370
    15
100
AcDbCircle
 10
-514.8963876646
 20
-154.7383094601
 30
0.0
 40
15.5
100
AcDbArc
 50
270.0
 51
317.3576900201
  0
LINE
  5
3BC
330
1F
100
AcDbEntity
  8
0
  6
Continuous
 62
     7
370
    15
100
AcDbLine
 10
-522.8963852804
 20
-139.2383091099
 30
0.0
 11
-532.3963896316
 21
-139.2383091099
 31
0.0
  0
LINE
  5
3BD
330
1F
100
AcDbEntity
  8
0
  6
Continuous
 62
     7
370
    15
100
AcDbLine
 10
-559.396384744
 20
-139.2383091099
 30
0.0
 11
-575.8963883799
 21
-139.2383091099
 31
0.0
  0
ARC
  5
3BE
330
1F
100
AcDbEntity
  8
0
  6
Continuous
 62
     7
370
    15
100
AcDbCircle
 10
174.1036123354
 20
-154.7383094601
 30
0.0
 40
15.49999999999999
100
AcDbArc
 50
90.0
 51
110.6935412312
  0
ARC
  5
3BF
330
1F
100
AcDbEntity
  8
0
  6
Continuous
 62
     7
370
    15
100
AcDbCircle
 10
174.1036123354
 20
-154.7383094601
 30
0.0
 40
15.5
100
AcDbArc
 50
222.6423099799
 51
270.0
  0
LINE
  5
3C0
330
1F
100
AcDbEntity
  8
0
  6
Continuous
 62
     7
370
    15
100
AcDbLine
 10
174.1036414225
 20
-170.2383095346
 30
0.0
 11
190.1036142427
 21
-170.2383095346
 31
0.0
  0
LINE
  5
3C1
330
1F
100
AcDbEntity
  8
0
  6
Continuous
 62
     7
370
    15
100
AcDbLine
 10
220.1035856325
 20
-170.2383095346
 30
0.0
 11
235.103630932
 21
-170.2383095346
 31
0.0
  0
ARC
  5
3C2
330
1F
100
AcDbEntity
  8
0
  6
Continuous
 62
     7
370
    15
100
AcDbCircle
 10
235.1036123354
 20
-154.7383094601
 30
0.0
 40
15.5
100
AcDbArc
 50
270.0
 51
317.3576900201
  0
ARC
  5
3C3
330
1F
100
AcDbEntity
  8
0
  6
Continuous
 62
     7
370
    15
100
AcDbCircle
 10
235.1036123354
 20
-154.7383094601
 30
0.0
 40
15.50000000000002
100
AcDbArc
 50
69.3064587688
 51
90.0
  0
LINE
  5
3C4
330
1F
100
AcDbEntity
  8
0
  6
Continuous
 62
     7
370
    15
100
AcDbLine
 10
235.103630932
 20
-139.2383091099
 30
0.0
 11
218.6036347467
 21
-139.2383091099
 31
0.0
  0
LINE
  5
3C5
330
1F
100
AcDbEntity
  8
0
  6
Continuous
 62
     7
370
    15
100
AcDbLine
 10
191.6036247332
 20
-139.2383091099
 30
0.0
 11
174.1036414225
 21
-139.2383091099
 31
0.0
  0
LINE
  5
3C6
330
1F
100
AcDbEntity
  8
0
  6
Continuous
 62
     7
370
    15
100
AcDbLine
 10
-645.3963876646
 20
-176.2383086554
 30
0.0
 11
-645.3963876646
 21
-164.2383094824
 31
0.0
  0
LINE
  5
3C7
330
1F
100
AcDbEntity
  8
0
  6
Continuous
 62
     7
370
    15
100
AcDbLine
 10
-645.3963876646
 20
-141.2383094377
 30
0.0
 11
-645.3963876646
 21
-136.2383095495
 31
0.0
  0
LINE
  5
3C8
330
1F
100
AcDbEntity
  8
0
  6
Continuous
 62
     7
370
    15
100
AcDbLine
 10
304.6036004145
 20
-136.2383095495
 30
0.0
 11
262.1036409456
 21
-136.2383095495
 31
0.0
  0
LINE
  5
3C9
330
1F
100
AcDbEntity
  8
0
  6
Continuous
 62
     7
370
    15
100
AcDbLine
 10
247.1035956461
 20
-136.2383095495
 30
0.0
 11
-507.8963846844
 21
-136.2383095495
 31
0.0
  0
LINE
  5
3CA
330
1F
100
AcDbEntity
  8
0
  6
Continuous
 62
     7
370
    15
100
AcDbLine
 10
-522.8963852804
 20
-136.2383095495
 30
0.0
 11
-645.3963876646
 21
-136.2383095495
 31
0.0
  0
LINE
  5
3CB
330
1F
100
AcDbEntity
  8
0
  6
Continuous
 62
     7
370
    15
100
AcDbLine
 10
304.6036004145
 20
-176.2383086554
 30
0.0
 11
304.6036004145
 21
-165.2383096464
 31
0.0
  0
LINE
  5
3CC
330
1F
100
AcDbEntity
  8
0
  6
Continuous
 62
     7
370
    15
100
AcDbLine
 10
304.6036004145
 20
-140.2383092738
 30
0.0
 11
304.6036004145
 21
-136.2383095495
 31
0.0
  0
LINE
  5
3CD
330
1F
100
AcDbEntity
  8
0
  6
Continuous
 62
     7
370
    15
100
AcDbLine
 10
-565.3963894527
 20
-169.738310384
 30
0.0
 11
-560.8963877838
 21
-169.738310384
 31
0.0
  0
LINE
  5
3CE
330
1F
100
AcDbEntity
  8
0
  6
Continuous
 62
     7
370
    15
100
AcDbLine
 10
-530.8963865917
 20
-169.738310384
 30
0.0
 11
-515.8963859957
 21
-169.738310384
 31
0.0
  0
LWPOLYLINE
  5
3CF
330
1F
100
AcDbEntity
  8
0
  6
Continuous
 62
     7
370
    15
100
AcDbPolyline
 90
        3
 70
   128
 43
0.0
 10
-575.8963883799
 20
-139.7383091919
 10
-578.2429040354
 20
-139.9229839392
 10
-579.7369615119
 20
-140.2383092738
  0
LINE
  5
3D0
330
1F
100
AcDbEntity
  8
0
  6
Continuous
 62
     7
370
    15
100
AcDbLine
 10
-522.8963852804
 20
-139.7383091919
 30
0.0
 11
-530.8963865917
 21
-139.7383091919
 31
0.0
  0
LINE
  5
3D1
330
1F
100
AcDbEntity
  8
0
  6
Continuous
 62
     7
370
    15
100
AcDbLine
 10
-560.8963877838
 20
-139.7383091919
 30
0.0
 11
-575.8963883799
 21
-139.7383091919
 31
0.0
  0
ARC
  5
3D2
330
1F
100
AcDbEntity
  8
0
  6
Continuous
 62
     7
370
    15
100
AcDbCircle
 10
-515.8963876646
 20
-154.7383094601
 30
0.0
 40
15.00000000000003
100
AcDbArc
 50
270.0
 51
315.5729959992
  0
LINE
  5
3D3
330
1F
100
AcDbEntity
  8
0
  6
Continuous
 62
     7
370
    15
100
AcDbLine
 10
175.1036285479
 20
-169.738310384
 30
0.0
 11
190.1036142427
 21
-169.738310384
 31
0.0
  0
LINE
  5
3D4
330
1F
100
AcDbEntity
  8
0
  6
Continuous
 62
     7
370
    15
100
AcDbLine
 10
220.1035856325
 20
-169.738310384
 30
0.0
 11
235.103630932
 21
-169.738310384
 31
0.0
  0
LINE
  5
3D5
330
1F
100
AcDbEntity
  8
0
  6
Continuous
 62
     7
370
    15
100
AcDbLine
 10
235.103630932
 20
-139.7383091919
 30
0.0
 11
220.1035856325
 21
-139.7383091919
 31
0.0
  0
LINE
  5
3D6
330
1F
100
AcDbEntity
  8
0
  6
Continuous
 62
     7
370
    15
100
AcDbLine
 10
190.1036142427
 20
-139.7383091919
 30
0.0
 11
175.1036285479
 21
-139.7383091919
 31
0.0
  0
LWPOLYLINE
  5
3D7
330
1F
100
AcDbEntity
  8
0
  6
Continuous
 62
     7
370
    15
100
AcDbPolyline
 90
        3
 70
   128
 43
0.0
 10
175.1036285479
 20
-139.7383091919
 10
172.7571128923
 20
-139.9229839392
 10
171.2630628664
 20
-140.2383092738
  0
ARC
  5
3D8
330
1F
100
AcDbEntity
  8
0
  6
Continuous
 62
     7
370
    15
100
AcDbCircle
 10
175.1036123354
 20
-154.7383094601
 30
0.0
 40
15.00000000000003
100
AcDbArc
 50
224.4270040008
 51
270.0
  0
ARC
  5
3D9
330
1F
100
AcDbEntity
  8
0
  6
Continuous
 62
     7
370
    15
100
AcDbCircle
 10
235.1036123354
 20
-154.7383094601
 30
0.0
 40
15.00000000000003
100
AcDbArc
 50
270.0
 51
315.5729959992
  0
LWPOLYLINE
  5
3DA
330
1F
100
AcDbEntity
  8
0
  6
Continuous
 62
     7
370
    15
100
AcDbPolyline
 90
        3
 70
   128
 43
0.0
 10
238.9441966135
 20
-140.2383092738
 10
237.4501465876
 20
-139.9229839392
 10
235.103630932
 20
-139.7383091919
  0
LINE
  5
3DB
330
1F
100
AcDbEntity
  8
0
  6
Continuous
 62
     7
370
    15
100
AcDbLine
 10
203.5854100306
 20
-142.2383096017
 30
0.0
 11
176.1036156733
 21
-142.2383096017
 31
0.0
  0
LINE
  5
3DC
330
1F
100
AcDbEntity
  8
0
  6
Continuous
 62
     7
370
    15
100
AcDbLine
 10
234.103584202
 20
-142.2383096017
 30
0.0
 11
203.5854100306
 21
-142.2383096017
 31
0.0
  0
LINE
  5
3DD
330
1F
100
AcDbEntity
  8
0
  6
Continuous
 62
     7
370
    15
100
AcDbLine
 10
203.5854100306
 20
-143.7383098475
 30
0.0
 11
176.1036156733
 21
-143.7383098475
 31
0.0
  0
LINE
  5
3DE
330
1F
100
AcDbEntity
  8
0
  6
Continuous
 62
     7
370
    15
100
AcDbLine
 10
234.103584202
 20
-143.7383098475
 30
0.0
 11
203.5854100306
 21
-143.7383098475
 31
0.0
  0
LINE
  5
3DF
330
1F
100
AcDbEntity
  8
0
  6
Continuous
 62
     7
370
    15
100
AcDbLine
 10
176.1036156733
 20
-163.2383093185
 30
0.0
 11
234.103584202
 21
-163.2383093185
 31
0.0
  0
LINE
  5
3E0
330
1F
100
AcDbEntity
  8
0
  6
Continuous
 62
     7
370
    15
100
AcDbLine
 10
176.1036156733
 20
-161.7383090727
 30
0.0
 11
234.103584202
 21
-161.7383090727
 31
0.0
  0
LINE
  5
3E1
330
1F
100
AcDbEntity
  8
0
  6
Continuous
 62
     7
370
    15
100
AcDbLine
 10
-547.4145994466
 20
-143.7383098475
 30
0.0
 11
-574.8963863533
 21
-143.7383098475
 31
0.0
  0
LINE
  5
3E2
330
1F
100
AcDbEntity
  8
0
  6
Continuous
 62
     7
370
    15
100
AcDbLine
 10
-516.8963880222
 20
-143.7383098475
 30
0.0
 11
-547.4145994466
 21
-143.7383098475
 31
0.0
  0
LINE
  5
3E3
330
1F
100
AcDbEntity
  8
0
  6
Continuous
 62
     7
370
    15
100
AcDbLine
 10
-547.4145994466
 20
-142.2383096017
 30
0.0
 11
-574.8963863533
 21
-142.2383096017
 31
0.0
  0
LINE
  5
3E4
330
1F
100
AcDbEntity
  8
0
  6
Continuous
 62
     7
370
    15
100
AcDbLine
 10
-516.8963880222
 20
-142.2383096017
 30
0.0
 11
-547.4145994466
 21
-142.2383096017
 31
0.0
  0
LINE
  5
3E5
330
1F
100
AcDbEntity
  8
0
  6
Continuous
 62
     7
370
    15
100
AcDbLine
 10
-574.8963863533
 20
-163.2383093185
 30
0.0
 11
-516.8963880222
 21
-163.2383093185
 31
0.0
  0
LINE
  5
3E6
330
1F
100
AcDbEntity
  8
0
  6
Continuous
 62
     7
370
    15
100
AcDbLine
 10
-574.8963863533
 20
-161.7383090727
 30
0.0
 11
-516.8963880222
 21
-161.7383090727
 31
0.0
  0
LINE
  5
3E7
330
1F
100
AcDbEntity
  8
0
  6
Continuous
 62
     7
370
    15
100
AcDbLine
 10
234.103584202
 20
-160.7699841208
 30
0.0
 11
176.1036156733
 21
-160.7699841208
 31
0.0
  0
LINE
  5
3E8
330
1F
100
AcDbEntity
  8
0
  6
Continuous
 62
     7
370
    15
100
AcDbLine
 10
191.5446161348
 20
-144.7587376408
 30
0.0
 11
234.103584202
 21
-144.7587376408
 31
0.0
  0
LINE
  5
3E9
330
1F
100
AcDbEntity
  8
0
  6
Continuous
 62
     7
370
    15
100
AcDbLine
 10
176.1036156733
 20
-144.7587376408
 30
0.0
 11
191.5446161348
 21
-144.7587376408
 31
0.0
  0
LINE
  5
3EA
330
1F
100
AcDbEntity
  8
0
  6
Continuous
 62
     7
370
    15
100
AcDbLine
 10
176.1036156733
 20
-143.7383098475
 30
0.0
 11
234.103584202
 21
-143.7383098475
 31
0.0
  0
LINE
  5
3EB
330
1F
100
AcDbEntity
  8
0
  6
Continuous
 62
     7
370
    15
100
AcDbLine
 10
-516.8963880222
 20
-160.7699841208
 30
0.0
 11
-574.8963863533
 21
-160.7699841208
 31
0.0
  0
LINE
  5
3EC
330
1F
100
AcDbEntity
  8
0
  6
Continuous
 62
     7
370
    15
100
AcDbLine
 10
-559.4553709906
 20
-144.7587376408
 30
0.0
 11
-516.8963880222
 21
-144.7587376408
 31
0.0
  0
LINE
  5
3ED
330
1F
100
AcDbEntity
  8
0
  6
Continuous
 62
     7
370
    15
100
AcDbLine
 10
-574.8963863533
 20
-144.7587376408
 30
0.0
 11
-559.4553709906
 21
-144.7587376408
 31
0.0
  0
LINE
  5
3EE
330
1F
100
AcDbEntity
  8
0
  6
Continuous
 62
     7
370
    15
100
AcDbLine
 10
-574.8963863533
 20
-143.7383098475
 30
0.0
 11
-516.8963880222
 21
-143.7383098475
 31
0.0
  0
LINE
  5
3EF
330
1F
100
AcDbEntity
  8
0
  6
Continuous
 62
     7
370
    15
100
AcDbLine
 10
190.1036142427
 20
-177.7383098326
 30
0.0
 11
220.1035856325
 21
-177.7383098326
 31
0.0
  0
LINE
  5
3F0
330
1F
100
AcDbEntity
  8
0
  6
Continuous
 62
     7
370
    15
100
AcDbLine
 10
192.1273111422
 20
-179.7383101605
 30
0.0
 11
192.1035884935
 21
-179.7383101605
 31
0.0
  0
LINE
  5
3F1
330
1F
100
AcDbEntity
  8
0
  6
Continuous
 62
     7
370
    15
100
AcDbLine
 10
218.1036113817
 20
-179.7383101605
 30
0.0
 11
192.1273111422
 21
-179.7383101605
 31
0.0
  0
LINE
  5
3F2
330
1F
100
AcDbEntity
  8
0
  6
Continuous
 62
     7
370
    15
100
AcDbLine
 10
-560.8963877838
 20
-177.7383098326
 30
0.0
 11
-530.8963865917
 21
-177.7383098326
 31
0.0
  0
LINE
  5
3F3
330
1F
100
AcDbEntity
  8
0
  6
Continuous
 62
     7
370
    15
100
AcDbLine
 10
-558.8726834338
 20
-179.7383101605
 30
0.0
 11
-558.8963911813
 21
-179.7383101605
 31
0.0
  0
LINE
  5
3F4
330
1F
100
AcDbEntity
  8
0
  6
Continuous
 62
     7
370
    15
100
AcDbLine
 10
-532.8963906448
 20
-179.7383101605
 30
0.0
 11
-558.8726834338
 21
-179.7383101605
 31
0.0
  0
LINE
  5
3F5
330
1F
100
AcDbEntity
  8
0
  6
Continuous
 62
     7
370
    15
100
AcDbLine
 10
190.1036142427
 20
-141.7383095197
 30
0.0
 11
220.1035856325
 21
-141.7383095197
 31
0.0
  0
LINE
  5
3F6
330
1F
100
AcDbEntity
  8
0
  6
Continuous
 62
     7
370
    15
100
AcDbLine
 10
220.1035856325
 20
-140.7383093558
 30
0.0
 11
190.1036142427
 21
-140.7383093558
 31
0.0
  0
LINE
  5
3F7
330
1F
100
AcDbEntity
  8
0
  6
Continuous
 62
     7
370
    15
100
AcDbLine
 10
192.1035884935
 20
-138.738309028
 30
0.0
 11
218.1036113817
 21
-138.738309028
 31
0.0
  0
LINE
  5
3F8
330
1F
100
AcDbEntity
  8
0
  6
Continuous
 62
     7
370
    15
100
AcDbLine
 10
-558.8963911813
 20
-138.738309028
 30
0.0
 11
-532.8963906448
 21
-138.738309028
 31
0.0
  0
LINE
  5
3F9
330
1F
100
AcDbEntity
  8
0
  6
Continuous
 62
     7
370
    15
100
AcDbLine
 10
-530.8963865917
 20
-140.7383093558
 30
0.0
 11
-560.8963877838
 21
-140.7383093558
 31
0.0
  0
LINE
  5
3FA
330
1F
100
AcDbEntity
  8
0
  6
Continuous
 62
     7
370
    15
100
AcDbLine
 10
-560.8963877838
 20
-141.7383095197
 30
0.0
 11
-530.8963865917
 21
-141.7383095197
 31
0.0
  0
LINE
  5
3FB
330
1F
100
AcDbEntity
  8
0
  6
Continuous
 62
     7
370
    15
100
AcDbLine
 10
-531.6683039945
 20
-163.7383094005
 30
0.0
 11
-531.1963842195
 21
-163.7383094005
 31
0.0
  0
LINE
  5
3FC
330
1F
100
AcDbEntity
  8
0
  6
Continuous
 62
     7
370
    15
100
AcDbLine
 10
-560.5963901561
 20
-163.7383094005
 30
0.0
 11
-531.6683039945
 21
-163.7383094005
 31
0.0
  0
LINE
  5
3FD
330
1F
100
AcDbEntity
  8
0
  6
Continuous
 62
     7
370
    15
100
AcDbLine
 10
-531.3779399674
 20
-164.0383098222
 30
0.0
 11
-560.8963877838
 21
-164.0383098222
 31
0.0
  0
LINE
  5
3FE
330
1F
100
AcDbEntity
  8
0
  6
Continuous
 62
     7
370
    15
100
AcDbLine
 10
-530.8963865917
 20
-164.0383098222
 30
0.0
 11
-531.3779399674
 21
-164.0383098222
 31
0.0
  0
LINE
  5
3FF
330
1F
100
AcDbEntity
  8
0
  6
Continuous
 62
     7
370
    15
100
AcDbLine
 10
-531.3779399674
 20
-169.4383090309
 30
0.0
 11
-530.8963865917
 21
-169.4383090309
 31
0.0
  0
LINE
  5
400
330
1F
100
AcDbEntity
  8
0
  6
Continuous
 62
     7
370
    15
100
AcDbLine
 10
-560.8963877838
 20
-169.4383090309
 30
0.0
 11
-531.3779399674
 21
-169.4383090309
 31
0.0
  0
LINE
  5
401
330
1F
100
AcDbEntity
  8
0
  6
Continuous
 62
     7
370
    15
100
AcDbLine
 10
219.3317054827
 20
-163.7383094005
 30
0.0
 11
219.8035954554
 21
-163.7383094005
 31
0.0
  0
LINE
  5
402
330
1F
100
AcDbEntity
  8
0
  6
Continuous
 62
     7
370
    15
100
AcDbLine
 10
190.4036044199
 20
-163.7383094005
 30
0.0
 11
219.3317054827
 21
-163.7383094005
 31
0.0
  0
LINE
  5
403
330
1F
100
AcDbEntity
  8
0
  6
Continuous
 62
     7
370
    15
100
AcDbLine
 10
219.6220397074
 20
-164.0383098222
 30
0.0
 11
190.1036142427
 21
-164.0383098222
 31
0.0
  0
LINE
  5
404
330
1F
100
AcDbEntity
  8
0
  6
Continuous
 62
     7
370
    15
100
AcDbLine
 10
220.1035856325
 20
-164.0383098222
 30
0.0
 11
219.6220397074
 21
-164.0383098222
 31
0.0
  0
LINE
  5
405
330
1F
100
AcDbEntity
  8
0
  6
Continuous
 62
     7
370
    15
100
AcDbLine
 10
219.6220397074
 20
-169.4383090309
 30
0.0
 11
220.1035856325
 21
-169.4383090309
 31
0.0
  0
LINE
  5
406
330
1F
100
AcDbEntity
  8
0
  6
Continuous
 62
     7
370
    15
100
AcDbLine
 10
190.1036142427
 20
-169.4383090309
 30
0.0
 11
219.6220397074
 21
-169.4383090309
 31
0.0
  0
LINE
  5
407
330
1F
100
AcDbEntity
  8
0
  6
Continuous
 62
     7
370
    15
100
AcDbLine
 10
-522.846384434
 20
-165.2383096464
 30
0.0
 11
-507.9463929813
 21
-165.2383096464
 31
0.0
  0
LINE
  5
408
330
1F
100
AcDbEntity
  8
0
  6
Continuous
 62
     7
370
    15
100
AcDbLine
 10
-508.9463950079
 20
-166.2383098103
 30
0.0
 11
-521.8463898581
 21
-166.2383098103
 31
0.0
  0
LINE
  5
409
330
1F
100
AcDbEntity
  8
0
  6
Continuous
 62
     7
370
    15
100
AcDbLine
 10
247.1536039431
 20
-165.2383096464
 30
0.0
 11
262.0536326487
 21
-165.2383096464
 31
0.0
  0
LINE
  5
40A
330
1F
100
AcDbEntity
  8
0
  6
Continuous
 62
     7
370
    15
100
AcDbLine
 10
261.0535859186
 20
-166.2383098103
 30
0.0
 11
248.1535910685
 21
-166.2383098103
 31
0.0
  0
LINE
  5
40B
330
1F
100
AcDbEntity
  8
0
  6
Continuous
 62
     7
370
    15
100
AcDbLine
 10
1017.1535848696
 20
-165.2383096464
 30
0.0
 11
1032.0535539705
 21
-165.2383096464
 31
0.0
  0
LINE
  5
40C
330
1F
100
AcDbEntity
  8
0
  6
Continuous
 62
     7
370
    15
100
AcDbLine
 10
1031.0536264498
 20
-166.2383098103
 30
0.0
 11
1018.1536315996
 21
-166.2383098103
 31
0.0
  0
LWPOLYLINE
  5
40D
330
1F
100
AcDbEntity
  8
0
  6
Continuous
 62
     7
370
    15
100
AcDbPolyline
 90
       13
 70
   128
 43
0.0
 10
1032.0757268984
 20
-140.2548449061
 10
1031.828129204
 20
-140.4016250692
 10
1030.966842087
 20
-140.885424795
 10
1029.4601558764
 20
-141.6213791765
 10
1027.1999477465
 20
-142.4067486025
 10
1025.1299976427
 20
-142.7244655735
 10
1022.9916214068
 20
-142.6092209242
 10
1021.1178897936
 20
-142.1481920354
 10
1019.3059085924
 20
-141.421716655
 10
1017.7970766146
 20
-140.6416557677
 10
1017.1284317095
 20
-140.2531545557
 10
1017.1036361773
 20
-140.2383092738
 10
1017.1036361773
 20
-140.2383092738
  0
LWPOLYLINE
  5
40E
330
1F
100
AcDbEntity
  8
0
  6
Continuous
 62
     7
370
    15
100
AcDbPolyline
 90
       13
 70
   128
 43
0.0
 10
262.0757459719
 20
-140.2548449061
 10
261.8281482775
 20
-140.4016250692
 10
260.9668611605
 20
-140.885424795
 10
259.4601749498
 20
-141.6213791765
 10
257.19996682
 20
-142.4067486025
 10
255.1299571116
 20
-142.7244655735
 10
252.9916404802
 20
-142.6092209242
 10
251.1178492624
 20
-142.1481920354
 10
249.3059276659
 20
-141.421716655
 10
247.7970956881
 20
-140.6416557677
 10
247.1283911783
 20
-140.2531545557
 10
247.1035956461
 20
-140.2383092738
 10
247.1035956461
 20
-140.2383092738
  0
SPLINE
  5
40F
330
1F
100
AcDbEntity
  8
0
  6
Continuous
 62
     7
370
    15
100
AcDbSpline
210
0.0
220
0.0
230
1.0
 70
     8
 71
     3
 72
    13
 73
     9
 74
     0
 42
0.000000001
 43
0.00000001
 40
0.0
 40
0.0
 40
0.0
 40
0.0
 40
0.1503027973286857
 40
0.3119081930209656
 40
0.4904256738698847
 40
0.6920127709330646
 40
0.8499273164763812
 40
1.0
 40
1.0
 40
1.0
 40
1.0
 10
-507.9242498558001
 20
-140.2548449061444
 30
0.0
 10
-507.9675572149793
 20
-140.2813126188722
 30
0.0
 10
-508.0574285971904
 20
-140.3362383860371
 30
0.0
 10
-508.9956433745856
 20
-140.8788238903023
 30
0.0
 10
-510.5248240750366
 20
-141.6567196215132
 30
0.0
 10
-512.5578169922245
 20
-142.4151176504483
 30
0.0
 10
-514.8312229152126
 20
-142.8181740730811
 30
0.0
 10
-516.2197846762236
 20
-142.6817366930053
 30
0.0
 10
-516.8963880222277
 20
-142.6152549631527
 30
0.0
  0
SPLINE
  5
410
330
1F
100
AcDbEntity
  8
0
  6
Continuous
 62
     7
370
    15
100
AcDbSpline
210
0.0
220
0.0
230
1.0
 70
     8
 71
     3
 72
    12
 73
     8
 74
     0
 42
0.000000001
 43
0.00000001
 40
0.0
 40
0.0
 40
0.0
 40
0.0
 40
0.045599853933688
 40
0.3148705007070343
 40
0.6279055159844379
 40
0.9305266751311848
 40
1.0
 40
1.0
 40
1.0
 40
1.0
 10
-518.5158909242587
 20
-142.2383096016576
 30
0.0
 10
-518.6391606548747
 20
-142.2091560647521
 30
0.0
 10
-519.4903476314284
 20
-142.0078486488079
 30
0.0
 10
-520.8512970174494
 20
-141.3537780380054
 30
0.0
 10
-522.3259472160115
 20
-140.5908192378849
 30
0.0
 10
-522.8634229865788
 20
-140.2575953476621
 30
0.0
 10
-522.8911992136267
 20
-140.2413436156606
 30
0.0
 10
-522.896385280414
 20
-140.2383092738321
 30
0.0
  0
LINE
  5
411
330
1F
100
AcDbEntity
  8
0
  6
Continuous
 62
     7
370
    15
100
AcDbLine
 10
284.603619488
 20
-118.2383103244
 30
0.0
 11
224.6036171038
 21
-118.2383103244
 31
0.0
  0
LINE
  5
412
330
1F
100
AcDbEntity
  8
0
  6
Continuous
 62
     7
370
    15
100
AcDbLine
 10
284.603619488
 20
-120.2383106522
 30
0.0
 11
224.6036171038
 21
-120.2383106522
 31
0.0
  0
LINE
  5
413
330
1F
100
AcDbEntity
  8
0
  6
Continuous
 62
     7
370
    15
100
AcDbLine
 10
269.6036337931
 20
-122.2383091174
 30
0.0
 11
239.6036027987
 21
-122.2383091174
 31
0.0
  0
LINE
  5
414
330
1F
100
AcDbEntity
  8
0
  6
Continuous
 62
     7
370
    15
100
AcDbLine
 10
-485.3963912409
 20
-118.2383103244
 30
0.0
 11
-545.3963861745
 21
-118.2383103244
 31
0.0
  0
LINE
  5
415
330
1F
100
AcDbEntity
  8
0
  6
Continuous
 62
     7
370
    15
100
AcDbLine
 10
-485.3963912409
 20
-120.2383106522
 30
0.0
 11
-545.3963861745
 21
-120.2383106522
 31
0.0
  0
LINE
  5
416
330
1F
100
AcDbEntity
  8
0
  6
Continuous
 62
     7
370
    15
100
AcDbLine
 10
-500.3963918369
 20
-122.2383091174
 30
0.0
 11
-530.3963855784
 21
-122.2383091174
 31
0.0
  0
LINE
  5
417
330
1F
100
AcDbEntity
  8
0
  6
Continuous
 62
     7
370
    15
100
AcDbLine
 10
1054.6036600191
 20
-118.2383103244
 30
0.0
 11
994.6035980303
 21
-118.2383103244
 31
0.0
  0
LINE
  5
418
330
1F
100
AcDbEntity
  8
0
  6
Continuous
 62
     7
370
    15
100
AcDbLine
 10
1054.6036600191
 20
-120.2383106522
 30
0.0
 11
994.6035980303
 21
-120.2383106522
 31
0.0
  0
LINE
  5
419
330
1F
100
AcDbEntity
  8
0
  6
Continuous
 62
     7
370
    15
100
AcDbLine
 10
1039.6035551149
 20
-122.2383091174
 30
0.0
 11
1009.6035837252
 21
-122.2383091174
 31
0.0
  0
LINE
  5
41A
330
1F
100
AcDbEntity
  8
0
  6
Continuous
 62
     7
370
    15
100
AcDbLine
 10
-644.3963876171
 20
-140.2383092738
 30
0.0
 11
-644.3963876171
 21
-165.2383096464
 31
0.0
  0
LINE
  5
41B
330
1F
100
AcDbEntity
  8
0
  6
Continuous
 62
     7
370
    15
100
AcDbLine
 10
-645.3963876646
 20
-164.2383094824
 30
0.0
 11
-645.3963876646
 21
-141.2383094377
 31
0.0
  0
LINE
  5
41C
330
1F
100
AcDbEntity
  8
0
  6
Continuous
 62
     7
370
    15
100
AcDbLine
 10
1154.6035646517
 20
-141.2383094377
 30
0.0
 11
1154.6035646517
 21
-164.2383094824
 31
0.0
  0
LINE
  5
41D
330
1F
100
AcDbEntity
  8
0
  6
Continuous
 62
     7
370
    15
100
AcDbLine
 10
1153.6036371309
 20
-165.2383096464
 30
0.0
 11
1153.6036371309
 21
-140.2383092738
 31
0.0
  0
SPLINE
  5
41E
330
1F
100
AcDbEntity
  8
0
  6
Continuous
 62
     7
370
    15
100
AcDbSpline
210
0.0
220
0.0
230
1.0
 70
     8
 71
     3
 72
    11
 73
     7
 74
     0
 42
0.000000001
 43
0.00000001
 40
0.0
 40
0.0
 40
0.0
 40
0.0
 40
0.2307237067022323
 40
0.4822370052340459
 40
0.7600034607801259
 40
1.0
 40
1.0
 40
1.0
 40
1.0
 10
-522.9144305866198
 20
-165.2192044950655
 30
0.0
 10
-522.8744987666313
 20
-165.1939903657976
 30
0.0
 10
-522.7910370298204
 20
-165.1412901627648
 30
0.0
 10
-521.8503963878183
 20
-164.6036668764475
 30
0.0
 10
-520.4968035077026
 20
-163.8667437716243
 30
0.0
 10
-519.1932137751436
 20
-163.4373461991071
 30
0.0
 10
-518.5889662187533
 20
-163.2383093185356
 30
0.0
  0
SPLINE
  5
41F
330
1F
100
AcDbEntity
  8
0
  6
Continuous
 62
     7
370
    15
100
AcDbSpline
210
0.0
220
0.0
230
1.0
 70
     8
 71
     3
 72
    14
 73
    10
 74
     0
 42
0.000000001
 43
0.00000001
 40
0.0
 40
0.0
 40
0.0
 40
0.0
 40
0.0700006100053129
 40
0.228257932644179
 40
0.3783915417294495
 40
0.5515643589057826
 40
0.7538583427788531
 40
0.9503468086910356
 40
0.9999999999999999
 40
0.9999999999999999
 40
0.9999999999999999
 40
0.9999999999999999
 10
-516.8963880222277
 20
-162.8644093818596
 30
0.0
 10
-516.5913082548013
 20
-162.8066593760246
 30
0.0
 10
-515.5965043952491
 20
-162.618348203578
 30
0.0
 10
-513.815967938763
 20
-162.7674109877738
 30
0.0
 10
-511.7937160732224
 20
-163.2780846610365
 30
0.0
 10
-509.9320704236728
 20
-164.0671378020435
 30
0.0
 10
-508.4572185467158
 20
-164.8676648536939
 30
0.0
 10
-507.8839744670096
 20
-165.2157449453525
 30
0.0
 10
-507.852700136599
 20
-165.2345218541748
 30
0.0
 10
-507.8463912885622
 20
-165.2383096463611
 30
0.0
  0
LWPOLYLINE
  5
420
330
1F
100
AcDbEntity
  8
0
  6
Continuous
 62
     7
370
    15
100
AcDbPolyline
 90
       13
 70
   128
 43
0.0
 10
247.0855950434
 20
-165.2192044951
 10
247.3228811342
 20
-165.077537293
 10
248.1794594843
 20
-164.5922930859
 10
249.6826290209
 20
-163.8497272454
 10
251.946651848
 20
-163.0488363973
 10
254.0263175089
 20
-162.717326539
 10
256.1811446268
 20
-162.8247406281
 10
258.0636977274
 20
-163.2843837089
 10
259.8878382761
 20
-164.015304292
 10
261.4243268091
 20
-164.8118151299
 10
262.1231316645
 20
-165.2199355833
 10
262.153589638
 20
-165.2383096464
 10
262.153589638
 20
-165.2383096464
  0
LWPOLYLINE
  5
421
330
1F
100
AcDbEntity
  8
0
  6
Continuous
 62
     7
370
    15
100
AcDbPolyline
 90
       13
 70
   128
 43
0.0
 10
1017.0855163652
 20
-165.2192044951
 10
1017.3228620607
 20
-165.077537293
 10
1018.1795000155
 20
-164.5922930859
 10
1019.6826099474
 20
-163.8497272454
 10
1021.9466327745
 20
-163.0488363973
 10
1024.0263580401
 20
-162.717326539
 10
1026.181185158
 20
-162.8247406281
 10
1028.0637382586
 20
-163.2843837089
 10
1029.8878788073
 20
-164.015304292
 10
1031.4243673403
 20
-164.8118151299
 10
1032.1231721956
 20
-165.2199355833
 10
1032.1535705645
 20
-165.2383096464
 10
1032.1535705645
 20
-165.2383096464
  0
LINE
  5
422
330
1F
100
AcDbEntity
  8
0
  6
Continuous
 62
     8
370
    15
100
AcDbLine
 10
1058.9036583025
 20
-169.0478855691
 30
0.0
 11
1058.9036583025
 21
-180.688309478
 31
0.0
  0
LINE
  5
423
330
1F
100
AcDbEntity
  8
0
  6
Continuous
 62
     8
370
    15
100
AcDbLine
 10
1058.9036583025
 20
-168.7883092038
 30
0.0
 11
1058.9036583025
 21
-169.0478855691
 31
0.0
  0
LINE
  5
424
330
1F
100
AcDbEntity
  8
0
  6
Continuous
 62
     8
370
    15
100
AcDbLine
 10
-565.6963870805
 20
-169.9009565584
 30
0.0
 11
-565.6963870805
 21
-168.7883092038
 31
0.0
  0
LINE
  5
425
330
1F
100
AcDbEntity
  8
0
  6
Continuous
 62
     8
370
    15
100
AcDbLine
 10
-565.6963870805
 20
-180.688309478
 30
0.0
 11
-565.6963870805
 21
-169.9009565584
 31
0.0
  0
ENDSEC
  0
SECTION
  2
OBJECTS
  0
DICTIONARY
  5
C
330
0
100
AcDbDictionary
281
     1
  3
ACAD_GROUP
350
D
  3
ACAD_LAYOUT
350
1A
  3
ACAD_MLINESTYLE
350
17
  3
ACAD_PLOTSETTINGS
350
19
  3
ACAD_PLOTSTYLENAME
350
E
  3
ACAD_SCALELIST
350
47
  0
DICTIONARY
  5
D
102
{ACAD_REACTORS
330
C
102
}
330
C
100
AcDbDictionary
281
     1
  0
DICTIONARY
  5
1A
102
{ACAD_REACTORS
330
C
102
}
330
C
100
AcDbDictionary
281
     1
  3
Layout1
350
1E
  3
Layout2
350
26
  3
Model
350
22
  0
DICTIONARY
  5
17
102
{ACAD_REACTORS
330
C
102
}
330
C
100
AcDbDictionary
281
     1
  3
Standard
350
18
  0
DICTIONARY
  5
19
102
{ACAD_REACTORS
330
C
102
}
330
C
100
AcDbDictionary
281
     1
  0
ACDBDICTIONARYWDFLT
  5
E
102
{ACAD_REACTORS
330
C
102
}
330
C
100
AcDbDictionary
281
     1
  3
Normal
350
F
100
AcDbDictionaryWithDefault
340
F
  0
DICTIONARY
  5
47
102
{ACAD_REACTORS
330
C
102
}
330
C
100
AcDbDictionary
281
     1
  3
A0
350
48
  3
A1
350
49
  3
A2
350
4A
  3
A3
350
4B
  3
A4
350
4C
  3
A5
350
4D
  3
A6
350
4E
  3
A7
350
4F
  3
A8
350
50
  3
A9
350
51
  3
B0
350
52
  3
B1
350
53
  3
B2
350
54
  3
B3
350
55
  3
B4
350
56
  3
B5
350
57
  3
B6
350
58
  3
B7
350
59
  3
B8
350
5A
  3
B9
350
5B
  3
C0
350
5C
  3
C1
350
5D
  3
C2
350
5E
  3
C3
350
5F
  3
C4
350
60
  3
C5
350
61
  3
C6
350
62
  3
C7
350
63
  3
C8
350
64
  3
C9
350
65
  3
D0
350
66
  3
D1
350
67
  3
D2
350
68
  0
LAYOUT
  5
1E
102
{ACAD_REACTORS
330
1A
102
}
330
1A
100
AcDbPlotSettings
  1

  2
none_device
  4

  6

 40
0.0
 41
0.0
 42
0.0
 43
0.0
 44
0.0
 45
0.0
 46
0.0
 47
0.0
 48
0.0
 49
0.0
140
0.0
141
0.0
142
1.0
143
1.0
 70
   688
 72
     1
 73
     0
 74
     5
  7

 75
    16
147
1.0
148
0.0
149
0.0
100
AcDbLayout
  1
Layout1
 70
     1
 71
     1
 10
0.0
 20
0.0
 11
420.0
 21
297.0
 12
0.0
 22
0.0
 32
0.0
 14
1.0000000000E+20
 24
1.0000000000E+20
 34
1.0000000000E+20
 15
-1.0000000000E+20
 25
-1.0000000000E+20
 35
-1.0000000000E+20
146
0.0
 13
0.0
 23
0.0
 33
0.0
 16
1.0
 26
0.0
 36
0.0
 17
0.0
 27
1.0
 37
0.0
 76
     0
330
1B
  0
LAYOUT
  5
26
102
{ACAD_REACTORS
330
1A
102
}
330
1A
100
AcDbPlotSettings
  1

  2
none_device
  4

  6

 40
0.0
 41
0.0
 42
0.0
 43
0.0
 44
0.0
 45
0.0
 46
0.0
 47
0.0
 48
0.0
 49
0.0
140
0.0
141
0.0
142
1.0
143
1.0
 70
   688
 72
     1
 73
     0
 74
     5
  7

 75
    16
147
1.0
148
0.0
149
0.0
100
AcDbLayout
  1
Layout2
 70
     1
 71
     2
 10
0.0
 20
0.0
 11
0.0
 21
0.0
 12
0.0
 22
0.0
 32
0.0
 14
0.0
 24
0.0
 34
0.0
 15
0.0
 25
0.0
 35
0.0
146
0.0
 13
0.0
 23
0.0
 33
0.0
 16
1.0
 26
0.0
 36
0.0
 17
0.0
 27
1.0
 37
0.0
 76
     0
330
23
  0
LAYOUT
  5
22
102
{ACAD_REACTORS
330
1A
102
}
330
1A
100
AcDbPlotSettings
  1

  2
none_device
  4
Letter_(8.50_x_11.00_Inches)
  6

 40
6.35
 41
6.35
 42
6.35000508
 43
6.35000508
 44
215.9
 45
279.4
 46
0.0
 47
0.0
 48
0.0
 49
0.0
140
0.0
141
0.0
142
1.0
143
1.0
 70
  1712
 72
     1
 73
     0
 74
     0
  7

 75
     0
147
1.0
148
0.0
149
0.0
100
AcDbLayout
  1
Model
 70
     1
 71
     0
 10
0.0
 20
0.0
 11
431.8
 21
279.4
 12
0.0
 22
0.0
 32
0.0
 14
0.0
 24
0.0
 34
0.0
 15
431.8
 25
279.4
 35
0.0
146
0.0
 13
0.0
 23
0.0
 33
0.0
 16
1.0
 26
0.0
 36
0.0
 17
0.0
 27
1.0
 37
0.0
 76
     0
330
1F
331
29
  0
MLINESTYLE
  5
18
102
{ACAD_REACTORS
330
17
102
}
330
17
100
AcDbMlineStyle
  2
Standard
 70
     0
  3

 62
   256
 51
90.0
 52
90.0
 71
     2
 49
0.5
 62
   256
  6
BYLAYER
 49
-0.5
 62
   256
  6
BYLAYER
  0
ACDBPLACEHOLDER
  5
F
102
{ACAD_REACTORS
330
E
102
}
330
E
  0
SCALE
  5
48
102
{ACAD_REACTORS
330
47
102
}
330
47
100
AcDbScale
 70
     0
300
1:1
140
1.0
141
1.0
290
     1
  0
SCALE
  5
49
102
{ACAD_REACTORS
330
47
102
}
330
47
100
AcDbScale
 70
     0
300
1:2
140
1.0
141
2.0
290
     0
  0
SCALE
  5
4A
102
{ACAD_REACTORS
330
47
102
}
330
47
100
AcDbScale
 70
     0
300
1:4
140
1.0
141
4.0
290
     0
  0
SCALE
  5
4B
102
{ACAD_REACTORS
330
47
102
}
330
47
100
AcDbScale
 70
     0
300
1:5
140
1.0
141
5.0
290
     0
  0
SCALE
  5
4C
102
{ACAD_REACTORS
330
47
102
}
330
47
100
AcDbScale
 70
     0
300
1:8
140
1.0
141
8.0
290
     0
  0
SCALE
  5
4D
102
{ACAD_REACTORS
330
47
102
}
330
47
100
AcDbScale
 70
     0
300
1:10
140
1.0
141
10.0
290
     0
  0
SCALE
  5
4E
102
{ACAD_REACTORS
330
47
102
}
330
47
100
AcDbScale
 70
     0
300
1:16
140
1.0
141
16.0
290
     0
  0
SCALE
  5
4F
102
{ACAD_REACTORS
330
47
102
}
330
47
100
AcDbScale
 70
     0
300
1:20
140
1.0
141
20.0
290
     0
  0
SCALE
  5
50
102
{ACAD_REACTORS
330
47
102
}
330
47
100
AcDbScale
 70
     0
300
1:30
140
1.0
141
30.0
290
     0
  0
SCALE
  5
51
102
{ACAD_REACTORS
330
47
102
}
330
47
100
AcDbScale
 70
     0
300
1:40
140
1.0
141
40.0
290
     0
  0
SCALE
  5
52
102
{ACAD_REACTORS
330
47
102
}
330
47
100
AcDbScale
 70
     0
300
1:50
140
1.0
141
50.0
290
     0
  0
SCALE
  5
53
102
{ACAD_REACTORS
330
47
102
}
330
47
100
AcDbScale
 70
     0
300
1:100
140
1.0
141
100.0
290
     0
  0
SCALE
  5
54
102
{ACAD_REACTORS
330
47
102
}
330
47
100
AcDbScale
 70
     0
300
2:1
140
2.0
141
1.0
290
     0
  0
SCALE
  5
55
102
{ACAD_REACTORS
330
47
102
}
330
47
100
AcDbScale
 70
     0
300
4:1
140
4.0
141
1.0
290
     0
  0
SCALE
  5
56
102
{ACAD_REACTORS
330
47
102
}
330
47
100
AcDbScale
 70
     0
300
8:1
140
8.0
141
1.0
290
     0
  0
SCALE
  5
57
102
{ACAD_REACTORS
330
47
102
}
330
47
100
AcDbScale
 70
     0
300
10:1
140
10.0
141
1.0
290
     0
  0
SCALE
  5
58
102
{ACAD_REACTORS
330
47
102
}
330
47
100
AcDbScale
 70
     0
300
100:1
140
100.0
141
1.0
290
     0
  0
SCALE
  5
59
102
{ACAD_REACTORS
330
47
102
}
330
47
100
AcDbScale
 70
     0
300
1/128" = 1'-0"
140
0.0078125
141
12.0
290
     0
  0
SCALE
  5
5A
102
{ACAD_REACTORS
330
47
102
}
330
47
100
AcDbScale
 70
     0
300
1/64" = 1'-0"
140
0.015625
141
12.0
290
     0
  0
SCALE
  5
5B
102
{ACAD_REACTORS
330
47
102
}
330
47
100
AcDbScale
 70
     0
300
1/32" = 1'-0"
140
0.03125
141
12.0
290
     0
  0
SCALE
  5
5C
102
{ACAD_REACTORS
330
47
102
}
330
47
100
AcDbScale
 70
     0
300
1/16" = 1'-0"
140
0.0625
141
12.0
290
     0
  0
SCALE
  5
5D
102
{ACAD_REACTORS
330
47
102
}
330
47
100
AcDbScale
 70
     0
300
3/32" = 1'-0"
140
0.09375
141
12.0
290
     0
  0
SCALE
  5
5E
102
{ACAD_REACTORS
330
47
102
}
330
47
100
AcDbScale
 70
     0
300
1/8" = 1'-0"
140
0.125
141
12.0
290
     0
  0
SCALE
  5
5F
102
{ACAD_REACTORS
330
47
102
}
330
47
100
AcDbScale
 70
     0
300
3/16" = 1'-0"
140
0.1875
141
12.0
290
     0
  0
SCALE
  5
60
102
{ACAD_REACTORS
330
47
102
}
330
47
100
AcDbScale
 70
     0
300
1/4" = 1'-0"
140
0.25
141
12.0
290
     0
  0
SCALE
  5
61
102
{ACAD_REACTORS
330
47
102
}
330
47
100
AcDbScale
 70
     0
300
3/8" = 1'-0"
140
0.375
141
12.0
290
     0
  0
SCALE
  5
62
102
{ACAD_REACTORS
330
47
102
}
330
47
100
AcDbScale
 70
     0
300
1/2" = 1'-0"
140
0.5
141
12.0
290
     0
  0
SCALE
  5
63
102
{ACAD_REACTORS
330
47
102
}
330
47
100
AcDbScale
 70
     0
300
3/4" = 1'-0"
140
0.75
141
12.0
290
     0
  0
SCALE
  5
64
102
{ACAD_REACTORS
330
47
102
}
330
47
100
AcDbScale
 70
     0
300
1" = 1'-0"
140
1.0
141
12.0
290
     0
  0
SCALE
  5
65
102
{ACAD_REACTORS
330
47
102
}
330
47
100
AcDbScale
 70
     0
300
1-1/2" = 1'-0"
140
1.5
141
12.0
290
     0
  0
SCALE
  5
66
102
{ACAD_REACTORS
330
47
102
}
330
47
100
AcDbScale
 70
     0
300
3" = 1'-0"
140
3.0
141
12.0
290
     0
  0
SCALE
  5
67
102
{ACAD_REACTORS
330
47
102
}
330
47
100
AcDbScale
 70
     0
300
6" = 1'-0"
140
6.0
141
12.0
290
     0
  0
SCALE
  5
68
102
{ACAD_REACTORS
330
47
102
}
330
47
100
AcDbScale
 70
     0
300
1'-0" = 1'-0"
140
12.0
141
12.0
290
     0
  0
ENDSEC
  0
EOF
